  0
SECTION
  2
HEADER
  9
$ACADVER
  1
AC1014
  9
$HANDSEED
  5
FFFF
  9
$MEASUREMENT
 70
     1
  0
ENDSEC
  0
SECTION
  2
TABLES
  0
TABLE
  2
VPORT
  5
8
330
0
100
AcDbSymbolTable
 70
     4
  0
VPORT
  5
2E
330
8
100
AcDbSymbolTableRecord
100
AcDbViewportTableRecord
  2
*ACTIVE
 70
     0
 10
0.0
 20
0.0
 11
1.0
 21
1.0
 12
210.0
 22
148.5
 13
0.0
 23
0.0
 14
10.0
 24
10.0
 15
10.0
 25
10.0
 16
0.0
 26
0.0
 36
1.0
 17
0.0
 27
0.0
 37
0.0
 40
341.0
 41
1.24
 42
50.0
 43
0.0
 44
0.0
 50
0.0
 51
0.0
 71
     0
 72
   100
 73
     1
 74
     3
 75
     0
 76
     0
 77
     0
 78
     0
  0
ENDTAB
  0
TABLE
  2
LTYPE
  5
5
330
0
100
AcDbSymbolTable
 70
     1
  0
LTYPE
  5
14
330
5
100
AcDbSymbolTableRecord
100
AcDbLinetypeTableRecord
  2
BYBLOCK
 70
     0
  3

 72
    65
 73
     0
 40
0.0
  0
LTYPE
  5
15
330
5
100
AcDbSymbolTableRecord
100
AcDbLinetypeTableRecord
  2
BYLAYER
 70
     0
  3

 72
    65
 73
     0
 40
0.0
  0
LTYPE
  5
16
330
5
100
AcDbSymbolTableRecord
100
AcDbLinetypeTableRecord
  2
CONTINUOUS
 70
     0
  3
Solid line
 72
    65
 73
     0
 40
0.0
  0
ENDTAB
  0
TABLE
  2
LAYER
  5
2
100
AcDbSymbolTable
 70
3
  0
LAYER
  5
50
100
AcDbSymbolTableRecord
100
AcDbLayerTableRecord
  2
0
 70
0
  6
CONTINUOUS
  0
LAYER
  5
51
100
AcDbSymbolTableRecord
100
AcDbLayerTableRecord
  2
Artwork
 70
0
  6
CONTINUOUS
  0
LAYER
  5
52
100
AcDbSymbolTableRecord
100
AcDbLayerTableRecord
  2
logos
 70
0
  6
CONTINUOUS
  0
ENDTAB
  0
TABLE
  2
STYLE
  5
3
330
0
100
AcDbSymbolTable
 70
     1
  0
STYLE
  5
11
330
3
100
AcDbSymbolTableRecord
100
AcDbTextStyleTableRecord
  2
STANDARD
 70
     0
 40
0.0
 41
1.0
 50
0.0
 71
     0
 42
2.5
  3
txt
  4

  0
ENDTAB
  0
TABLE
  2
VIEW
  5
6
330
0
100
AcDbSymbolTable
 70
     0
  0
ENDTAB
  0
TABLE
  2
UCS
  5
7
330
0
100
AcDbSymbolTable
 70
     0
  0
ENDTAB
  0
TABLE
  2
APPID
  5
9
330
0
100
AcDbSymbolTable
 70
     2
  0
APPID
  5
12
330
9
100
AcDbSymbolTableRecord
100
AcDbRegAppTableRecord
  2
ACAD
 70
     0
  0
ENDTAB
  0
TABLE
  2
DIMSTYLE
  5
A
330
0
100
AcDbSymbolTable
 70
     1
  0
DIMSTYLE
105
27
330
A
100
AcDbSymbolTableRecord
100
AcDbDimStyleTableRecord
  2
ISO-25
 70
     0
  3

  4

  5

  6

  7

 40
1.0
 41
2.5
 42
0.625
 43
3.75
 44
1.25
 45
0.0
 46
0.0
 47
0.0
 48
0.0
140
2.5
141
2.5
142
0.0
143
0.03937007874016
144
1.0
145
0.0
146
1.0
147
0.625
 71
     0
 72
     0
 73
     0
 74
     0
 75
     0
 76
     0
 77
     1
 78
     8
170
     0
171
     3
172
     1
173
     0
174
     0
175
     0
176
     0
177
     0
178
     0
270
     2
271
     2
272
     2
273
     2
274
     3
340
11
275
     0
280
     0
281
     0
282
     0
283
     0
284
     8
285
     0
286
     0
287
     3
288
     0
  0
ENDTAB
  0
TABLE
  2
BLOCK_RECORD
  5
1
330
0
100
AcDbSymbolTable
 70
     1
  0
BLOCK_RECORD
  5
1F
330
1
100
AcDbSymbolTableRecord
100
AcDbBlockTableRecord
  2
*MODEL_SPACE
  0
BLOCK_RECORD
  5
1B
330
1
100
AcDbSymbolTableRecord
100
AcDbBlockTableRecord
  2
*PAPER_SPACE
  0
ENDTAB
  0
ENDSEC
  0
SECTION
  2
BLOCKS
  0
BLOCK
  5
20
330
1F
100
AcDbEntity
  8
0
100
AcDbBlockBegin
  2
*MODEL_SPACE
 70
     0
 10
0.0
 20
0.0
 30
0.0
  3
*MODEL_SPACE
  1

  0
ENDBLK
  5
21
330
1F
100
AcDbEntity
  8
0
100
AcDbBlockEnd
  0
BLOCK
  5
1C
330
1B
100
AcDbEntity
 67
     1
  8
0
100
AcDbBlockBegin
  2
*PAPER_SPACE
  1

  0
ENDBLK
  5
1D
330
1B
100
AcDbEntity
 67
     1
  8
0
100
AcDbBlockEnd
  0
ENDSEC
  0
SECTION
  2
ENTITIES
  0
LWPOLYLINE
  5
100
100
AcDbEntity
  8
logos
 62
7
100
AcDbPolyline
 90
17
 70
1
 10
30.156649
 20
30.983748
 30
0.0
 10
30.028536
 20
29.949512
 30
0.0
 10
29.697371
 20
29.272781
 30
0.0
 10
29.242920
 20
28.903470
 30
0.0
 10
28.744948
 20
28.791495
 30
0.0
 10
28.208035
 20
28.923059
 30
0.0
 10
27.770599
 20
29.324297
 30
0.0
 10
27.476196
 20
30.005030
 30
0.0
 10
27.368383
 20
30.975080
 30
0.0
 10
27.487995
 20
31.968513
 30
0.0
 10
27.805712
 20
32.649710
 30
0.0
 10
28.259857
 20
33.041610
 30
0.0
 10
28.788752
 20
33.167146
 30
0.0
 10
29.324310
 20
33.033160
 30
0.0
 10
29.758766
 20
32.627901
 30
0.0
 10
30.050190
 20
31.946416
 30
0.0
 10
30.156649
 20
30.983748
 30
0.0
  0
LWPOLYLINE
  5
101
100
AcDbEntity
  8
logos
 62
7
100
AcDbPolyline
 90
17
 70
1
 10
28.043431
 20
30.983748
 30
0.0
 10
28.072214
 20
30.428884
 30
0.0
 10
28.181565
 20
29.892072
 30
0.0
 10
28.405989
 20
29.486776
 30
0.0
 10
28.779991
 20
29.326464
 30
0.0
 10
29.133733
 20
29.491718
 30
0.0
 10
29.347754
 20
29.905247
 30
0.0
 10
29.453273
 20
30.443707
 30
0.0
 10
29.481508
 20
30.983748
 30
0.0
 10
29.453012
 20
31.515042
 30
0.0
 10
29.345599
 20
32.051342
 30
0.0
 10
29.126381
 20
32.466000
 30
0.0
 10
28.762469
 20
32.632364
 30
0.0
 10
28.394862
 20
32.466000
 30
0.0
 10
28.176055
 20
32.051342
 30
0.0
 10
28.070695
 20
31.515042
 30
0.0
 10
28.043431
 20
30.983748
 30
0.0
  0
LWPOLYLINE
  5
102
100
AcDbEntity
  8
logos
 62
7
100
AcDbPolyline
 90
49
 70
1
 10
30.901318
 20
31.781540
 30
0.0
 10
30.897087
 20
32.220199
 30
0.0
 10
30.887117
 20
32.575057
 30
0.0
 10
30.875485
 20
32.864157
 30
0.0
 10
30.866274
 20
33.105540
 30
0.0
 10
31.015348
 20
33.105540
 30
0.0
 10
31.164422
 20
33.105540
 30
0.0
 10
31.313495
 20
33.105540
 30
0.0
 10
31.462569
 20
33.105540
 30
0.0
 10
31.471329
 20
32.969678
 30
0.0
 10
31.480090
 20
32.833816
 30
0.0
 10
31.488851
 20
32.697953
 30
0.0
 10
31.497612
 20
32.562091
 30
0.0
 10
31.501992
 20
32.562091
 30
0.0
 10
31.506373
 20
32.562091
 30
0.0
 10
31.510753
 20
32.562091
 30
0.0
 10
31.515133
 20
32.562091
 30
0.0
 10
31.709218
 20
32.845321
 30
0.0
 10
31.930468
 20
33.032343
 30
0.0
 10
32.169804
 20
33.135502
 30
0.0
 10
32.418149
 20
33.167146
 30
0.0
 10
32.924423
 20
33.023416
 30
0.0
 10
33.311448
 20
32.602656
 30
0.0
 10
33.558708
 20
31.920504
 30
0.0
 10
33.645687
 20
30.992602
 30
0.0
 10
33.533905
 20
29.982830
 30
0.0
 10
33.238007
 20
29.300216
 30
0.0
 10
32.817162
 20
28.913543
 30
0.0
 10
32.330541
 20
28.791589
 30
0.0
 10
32.059889
 20
28.835030
 30
0.0
 10
31.849291
 20
28.948362
 30
0.0
 10
31.692987
 20
29.106100
 30
0.0
 10
31.585220
 20
29.282753
 30
0.0
 10
31.580839
 20
29.282753
 30
0.0
 10
31.576459
 20
29.282753
 30
0.0
 10
31.572079
 20
29.282753
 30
0.0
 10
31.567698
 20
29.282753
 30
0.0
 10
31.567698
 20
28.756639
 30
0.0
 10
31.567698
 20
28.230524
 30
0.0
 10
31.567698
 20
27.704410
 30
0.0
 10
31.567698
 20
27.178295
 30
0.0
 10
31.401103
 20
27.178295
 30
0.0
 10
31.234508
 20
27.178295
 30
0.0
 10
31.067913
 20
27.178295
 30
0.0
 10
30.901318
 20
27.178295
 30
0.0
 10
30.901318
 20
28.329107
 30
0.0
 10
30.901318
 20
29.479918
 30
0.0
 10
30.901318
 20
30.630729
 30
0.0
 10
30.901318
 20
31.781540
 30
0.0
  0
LWPOLYLINE
  5
103
100
AcDbEntity
  8
logos
 62
7
100
AcDbPolyline
 90
29
 70
1
 10
31.567698
 20
30.413829
 30
0.0
 10
31.569491
 20
30.321897
 30
0.0
 10
31.575398
 20
30.231704
 30
0.0
 10
31.586217
 20
30.144849
 30
0.0
 10
31.602741
 20
30.062931
 30
0.0
 10
31.729691
 20
29.696815
 30
0.0
 10
31.894387
 20
29.481106
 30
0.0
 10
32.068905
 20
29.378811
 30
0.0
 10
32.225318
 20
29.352933
 30
0.0
 10
32.578512
 20
29.486786
 30
0.0
 10
32.808412
 20
29.845052
 30
0.0
 10
32.933095
 20
30.362796
 30
0.0
 10
32.970639
 20
30.975080
 30
0.0
 10
32.929263
 20
31.597038
 30
0.0
 10
32.797462
 20
32.110443
 30
0.0
 10
32.563729
 20
32.459442
 30
0.0
 10
32.216557
 20
32.588187
 30
0.0
 10
31.994744
 20
32.523278
 30
0.0
 10
31.803355
 20
32.351528
 30
0.0
 10
31.662923
 20
32.107396
 30
0.0
 10
31.593981
 20
31.825344
 30
0.0
 10
31.582521
 20
31.750037
 30
0.0
 10
31.574304
 20
31.669758
 30
0.0
 10
31.569354
 20
31.586142
 30
0.0
 10
31.567698
 20
31.500822
 30
0.0
 10
31.567698
 20
31.229073
 30
0.0
 10
31.567698
 20
30.957325
 30
0.0
 10
31.567698
 20
30.685577
 30
0.0
 10
31.567698
 20
30.413829
 30
0.0
  0
LWPOLYLINE
  5
104
100
AcDbEntity
  8
logos
 62
7
100
AcDbPolyline
 90
37
 70
1
 10
34.881240
 20
30.922329
 30
0.0
 10
34.969613
 20
30.124531
 30
0.0
 10
35.200206
 20
29.643285
 30
0.0
 10
35.521232
 20
29.407022
 30
0.0
 10
35.880904
 20
29.344172
 30
0.0
 10
36.092862
 20
29.356493
 30
0.0
 10
36.280966
 20
29.390177
 30
0.0
 10
36.444395
 20
29.440306
 30
0.0
 10
36.582328
 20
29.501960
 30
0.0
 10
36.610801
 20
29.379169
 30
0.0
 10
36.639273
 20
29.256377
 30
0.0
 10
36.667746
 20
29.133586
 30
0.0
 10
36.696219
 20
29.010795
 30
0.0
 10
36.497930
 20
28.927553
 30
0.0
 10
36.266683
 20
28.864005
 30
0.0
 10
36.015689
 20
28.823455
 30
0.0
 10
35.758160
 20
28.809203
 30
0.0
 10
35.087933
 20
28.959668
 30
0.0
 10
34.605100
 20
29.388010
 30
0.0
 10
34.312972
 20
30.059659
 30
0.0
 10
34.214860
 20
30.940037
 30
0.0
 10
34.319937
 20
31.864986
 30
0.0
 10
34.614898
 20
32.566448
 30
0.0
 10
35.069336
 20
33.011481
 30
0.0
 10
35.652844
 20
33.167146
 30
0.0
 10
36.204389
 20
33.009855
 30
0.0
 10
36.580057
 20
32.592788
 30
0.0
 10
36.794622
 20
31.998159
 30
0.0
 10
36.862860
 20
31.308177
 30
0.0
 10
36.861341
 20
31.192383
 30
0.0
 10
36.857352
 20
31.092220
 30
0.0
 10
36.851732
 20
31.003574
 30
0.0
 10
36.845339
 20
30.922329
 30
0.0
 10
36.354314
 20
30.922329
 30
0.0
 10
35.863290
 20
30.922329
 30
0.0
 10
35.372265
 20
30.922329
 30
0.0
 10
34.881240
 20
30.922329
 30
0.0
  0
LWPOLYLINE
  5
105
100
AcDbEntity
  8
logos
 62
7
100
AcDbPolyline
 90
13
 70
1
 10
36.214001
 20
31.422161
 30
0.0
 10
36.164782
 20
31.967639
 30
0.0
 10
36.023442
 20
32.347043
 30
0.0
 10
35.819595
 20
32.568631
 30
0.0
 10
35.582851
 20
32.640658
 30
0.0
 10
35.289570
 20
32.531606
 30
0.0
 10
35.078545
 20
32.248309
 30
0.0
 10
34.946437
 20
31.856563
 30
0.0
 10
34.889908
 20
31.422161
 30
0.0
 10
35.220931
 20
31.422161
 30
0.0
 10
35.551955
 20
31.422161
 30
0.0
 10
35.882978
 20
31.422161
 30
0.0
 10
36.214001
 20
31.422161
 30
0.0
  0
LWPOLYLINE
  5
106
100
AcDbEntity
  8
logos
 62
7
100
AcDbPolyline
 90
61
 70
1
 10
37.590287
 20
32.009694
 30
0.0
 10
37.586056
 20
32.343791
 30
0.0
 10
37.576095
 20
32.616927
 30
0.0
 10
37.564492
 20
32.860408
 30
0.0
 10
37.555330
 20
33.105540
 30
0.0
 10
37.702167
 20
33.105540
 30
0.0
 10
37.849004
 20
33.105540
 30
0.0
 10
37.995840
 20
33.105540
 30
0.0
 10
38.142677
 20
33.105540
 30
0.0
 10
38.151485
 20
32.976225
 30
0.0
 10
38.160292
 20
32.846910
 30
0.0
 10
38.169099
 20
32.717595
 30
0.0
 10
38.177907
 20
32.588280
 30
0.0
 10
38.182259
 20
32.588280
 30
0.0
 10
38.186621
 20
32.588280
 30
0.0
 10
38.190983
 20
32.588280
 30
0.0
 10
38.195345
 20
32.588280
 30
0.0
 10
38.362188
 20
32.822949
 30
0.0
 10
38.583302
 20
33.005909
 30
0.0
 10
38.853712
 20
33.124771
 30
0.0
 10
39.168446
 20
33.167146
 30
0.0
 10
39.576631
 20
33.083993
 30
0.0
 10
39.901791
 20
32.824099
 30
0.0
 10
40.116789
 20
32.371805
 30
0.0
 10
40.194486
 20
31.711454
 30
0.0
 10
40.194486
 20
30.999032
 30
0.0
 10
40.194486
 20
30.286611
 30
0.0
 10
40.194486
 20
29.574190
 30
0.0
 10
40.194486
 20
28.861768
 30
0.0
 10
40.025724
 20
28.861768
 30
0.0
 10
39.856962
 20
28.861768
 30
0.0
 10
39.688200
 20
28.861768
 30
0.0
 10
39.519438
 20
28.861768
 30
0.0
 10
39.519438
 20
29.543504
 30
0.0
 10
39.519438
 20
30.225239
 30
0.0
 10
39.519438
 20
30.906974
 30
0.0
 10
39.519438
 20
31.588709
 30
0.0
 10
39.496666
 20
31.960863
 30
0.0
 10
39.409753
 20
32.283632
 30
0.0
 10
39.230799
 20
32.511023
 30
0.0
 10
38.931905
 20
32.597041
 30
0.0
 10
38.725971
 20
32.553078
 30
0.0
 10
38.540604
 20
32.422814
 30
0.0
 10
38.393054
 20
32.208689
 30
0.0
 10
38.300567
 20
31.913139
 30
0.0
 10
38.283975
 20
31.829416
 30
0.0
 10
38.273097
 20
31.736641
 30
0.0
 10
38.267150
 20
31.635653
 30
0.0
 10
38.265342
 20
31.527290
 30
0.0
 10
38.265342
 20
30.860910
 30
0.0
 10
38.265342
 20
30.194529
 30
0.0
 10
38.265342
 20
29.528149
 30
0.0
 10
38.265342
 20
28.861768
 30
0.0
 10
38.096580
 20
28.861768
 30
0.0
 10
37.927818
 20
28.861768
 30
0.0
 10
37.759056
 20
28.861768
 30
0.0
 10
37.590294
 20
28.861768
 30
0.0
 10
37.590294
 20
29.648750
 30
0.0
 10
37.590294
 20
30.435731
 30
0.0
 10
37.590294
 20
31.222712
 30
0.0
 10
37.590287
 20
32.009694
 30
0.0
  0
LWPOLYLINE
  5
107
100
AcDbEntity
  8
logos
 62
7
100
AcDbPolyline
 90
57
 70
1
 10
41.026667
 20
29.563192
 30
0.0
 10
41.158247
 20
29.488314
 30
0.0
 10
41.322717
 20
29.417544
 30
0.0
 10
41.510183
 20
29.364842
 30
0.0
 10
41.710755
 20
29.344172
 30
0.0
 10
41.967063
 20
29.387036
 30
0.0
 10
42.163370
 20
29.509613
 30
0.0
 10
42.288990
 20
29.702878
 30
0.0
 10
42.333238
 20
29.957801
 30
0.0
 10
42.308742
 20
30.184210
 30
0.0
 10
42.222610
 20
30.387500
 30
0.0
 10
42.055883
 20
30.584149
 30
0.0
 10
41.789602
 20
30.790637
 30
0.0
 10
41.423648
 20
31.058587
 30
0.0
 10
41.157135
 20
31.342125
 30
0.0
 10
40.994197
 20
31.650302
 30
0.0
 10
40.938965
 20
31.992172
 30
0.0
 10
41.028722
 20
32.467925
 30
0.0
 10
41.275499
 20
32.839325
 30
0.0
 10
41.645564
 20
33.080870
 30
0.0
 10
42.105178
 20
33.167052
 30
0.0
 10
42.338877
 20
33.147540
 30
0.0
 10
42.541331
 20
33.096721
 30
0.0
 10
42.714252
 20
33.026173
 30
0.0
 10
42.859353
 20
32.947473
 30
0.0
 10
42.815456
 20
32.820441
 30
0.0
 10
42.771558
 20
32.693410
 30
0.0
 10
42.727661
 20
32.566378
 30
0.0
 10
42.683764
 20
32.439346
 30
0.0
 10
42.556745
 20
32.517459
 30
0.0
 10
42.422117
 20
32.578447
 30
0.0
 10
42.275832
 20
32.618115
 30
0.0
 10
42.113845
 20
32.632270
 30
0.0
 10
41.877368
 20
32.586770
 30
0.0
 10
41.707330
 20
32.465593
 30
0.0
 10
41.604641
 20
32.291730
 30
0.0
 10
41.570209
 20
32.088168
 30
0.0
 10
41.593266
 20
31.896940
 30
0.0
 10
41.675537
 20
31.727776
 30
0.0
 10
41.836673
 20
31.556879
 30
0.0
 10
42.096324
 20
31.360462
 30
0.0
 10
42.440646
 20
31.108656
 30
0.0
 10
42.719087
 20
30.818108
 30
0.0
 10
42.905399
 20
30.476498
 30
0.0
 10
42.973337
 20
30.071505
 30
0.0
 10
42.871958
 20
29.515419
 30
0.0
 10
42.596319
 20
29.121307
 30
0.0
 10
42.189163
 20
28.886673
 30
0.0
 10
41.693234
 20
28.809017
 30
0.0
 10
41.459456
 20
28.826407
 30
0.0
 10
41.230588
 20
28.875865
 30
0.0
 10
41.024788
 20
28.953317
 30
0.0
 10
40.860211
 20
29.054692
 30
0.0
 10
40.901825
 20
29.181817
 30
0.0
 10
40.943439
 20
29.308942
 30
0.0
 10
40.985053
 20
29.436067
 30
0.0
 10
41.026667
 20
29.563192
 30
0.0
  0
LWPOLYLINE
  5
108
100
AcDbEntity
  8
logos
 62
7
100
AcDbPolyline
 90
69
 70
1
 10
44.498556
 20
34.096723
 30
0.0
 10
44.498556
 20
33.848927
 30
0.0
 10
44.498556
 20
33.601132
 30
0.0
 10
44.498556
 20
33.353336
 30
0.0
 10
44.498556
 20
33.105540
 30
0.0
 10
44.702454
 20
33.105540
 30
0.0
 10
44.906353
 20
33.105540
 30
0.0
 10
45.110251
 20
33.105540
 30
0.0
 10
45.314149
 20
33.105540
 30
0.0
 10
45.314149
 20
32.978415
 30
0.0
 10
45.314149
 20
32.851291
 30
0.0
 10
45.314149
 20
32.724166
 30
0.0
 10
45.314149
 20
32.597041
 30
0.0
 10
45.110251
 20
32.597041
 30
0.0
 10
44.906353
 20
32.597041
 30
0.0
 10
44.702454
 20
32.597041
 30
0.0
 10
44.498556
 20
32.597041
 30
0.0
 10
44.498556
 20
31.965680
 30
0.0
 10
44.498556
 20
31.334320
 30
0.0
 10
44.498556
 20
30.702959
 30
0.0
 10
44.498556
 20
30.071598
 30
0.0
 10
44.532509
 20
29.729067
 30
0.0
 10
44.625634
 20
29.513900
 30
0.0
 10
44.764823
 20
29.402275
 30
0.0
 10
44.936969
 20
29.370361
 30
0.0
 10
45.017569
 20
29.372020
 30
0.0
 10
45.089188
 20
29.376969
 30
0.0
 10
45.152593
 20
29.385189
 30
0.0
 10
45.208554
 20
29.396648
 30
0.0
 10
45.217333
 20
29.267286
 30
0.0
 10
45.226113
 20
29.137925
 30
0.0
 10
45.234901
 20
29.008563
 30
0.0
 10
45.243681
 20
28.879201
 30
0.0
 10
45.144641
 20
28.849849
 30
0.0
 10
45.029927
 20
28.827802
 30
0.0
 10
44.897178
 20
28.813932
 30
0.0
 10
44.744035
 20
28.809114
 30
0.0
 10
44.547408
 20
28.822944
 30
0.0
 10
44.367984
 20
28.867189
 30
0.0
 10
44.209968
 20
28.945983
 30
0.0
 10
44.077562
 20
29.063457
 30
0.0
 10
43.963764
 20
29.229190
 30
0.0
 10
43.884428
 20
29.450144
 30
0.0
 10
43.837980
 20
29.745192
 30
0.0
 10
43.822846
 20
30.133207
 30
0.0
 10
43.822846
 20
30.749167
 30
0.0
 10
43.822846
 20
31.365126
 30
0.0
 10
43.822846
 20
31.981085
 30
0.0
 10
43.822846
 20
32.597044
 30
0.0
 10
43.693507
 20
32.597044
 30
0.0
 10
43.564169
 20
32.597044
 30
0.0
 10
43.434831
 20
32.597044
 30
0.0
 10
43.305492
 20
32.597044
 30
0.0
 10
43.305492
 20
32.724169
 30
0.0
 10
43.305492
 20
32.851294
 30
0.0
 10
43.305492
 20
32.978419
 30
0.0
 10
43.305492
 20
33.105544
 30
0.0
 10
43.434831
 20
33.105544
 30
0.0
 10
43.564169
 20
33.105544
 30
0.0
 10
43.693507
 20
33.105544
 30
0.0
 10
43.822846
 20
33.105544
 30
0.0
 10
43.822846
 20
33.285350
 30
0.0
 10
43.822846
 20
33.465157
 30
0.0
 10
43.822846
 20
33.644963
 30
0.0
 10
43.822846
 20
33.824769
 30
0.0
 10
43.991771
 20
33.892758
 30
0.0
 10
44.160696
 20
33.960748
 30
0.0
 10
44.329621
 20
34.028737
 30
0.0
 10
44.498556
 20
34.096723
 30
0.0
  0
LWPOLYLINE
  5
109
100
AcDbEntity
  8
logos
 62
7
100
AcDbPolyline
 90
61
 70
1
 10
48.145661
 20
29.826109
 30
0.0
 10
48.147590
 20
29.576833
 30
0.0
 10
48.154459
 20
29.324192
 30
0.0
 10
48.167878
 20
29.081425
 30
0.0
 10
48.189467
 20
28.861768
 30
0.0
 10
48.038226
 20
28.861768
 30
0.0
 10
47.886986
 20
28.861768
 30
0.0
 10
47.735745
 20
28.861768
 30
0.0
 10
47.584505
 20
28.861768
 30
0.0
 10
47.573554
 20
28.973585
 30
0.0
 10
47.562603
 20
29.085402
 30
0.0
 10
47.551652
 20
29.197219
 30
0.0
 10
47.540701
 20
29.309035
 30
0.0
 10
47.534037
 20
29.309035
 30
0.0
 10
47.527373
 20
29.309035
 30
0.0
 10
47.520710
 20
29.309035
 30
0.0
 10
47.514046
 20
29.309035
 30
0.0
 10
47.355479
 20
29.091276
 30
0.0
 10
47.158127
 20
28.928616
 30
0.0
 10
46.926191
 20
28.826803
 30
0.0
 10
46.663875
 20
28.791589
 30
0.0
 10
46.270871
 20
28.877117
 30
0.0
 10
45.953481
 20
29.120515
 30
0.0
 10
45.741325
 20
29.502001
 30
0.0
 10
45.664024
 20
30.001792
 30
0.0
 10
45.811873
 20
30.692985
 30
0.0
 10
46.208838
 20
31.171254
 30
0.0
 10
46.785042
 20
31.450571
 30
0.0
 10
47.470615
 20
31.544905
 30
0.0
 10
47.470615
 20
31.577758
 30
0.0
 10
47.470615
 20
31.610611
 30
0.0
 10
47.470615
 20
31.643464
 30
0.0
 10
47.470615
 20
31.676317
 30
0.0
 10
47.439097
 20
32.066212
 30
0.0
 10
47.330314
 20
32.368129
 30
0.0
 10
47.122919
 20
32.563152
 30
0.0
 10
46.795566
 20
32.632364
 30
0.0
 10
46.603238
 20
32.617793
 30
0.0
 10
46.421683
 20
32.575209
 30
0.0
 10
46.251643
 20
32.506308
 30
0.0
 10
46.093863
 20
32.412784
 30
0.0
 10
46.056630
 20
32.531218
 30
0.0
 10
46.019396
 20
32.649652
 30
0.0
 10
45.982163
 20
32.768086
 30
0.0
 10
45.944929
 20
32.886520
 30
0.0
 10
46.118210
 20
32.985768
 30
0.0
 10
46.351527
 20
33.076077
 30
0.0
 10
46.629246
 20
33.141764
 30
0.0
 10
46.935739
 20
33.167146
 30
0.0
 10
47.483549
 20
33.066006
 30
0.0
 10
47.859632
 20
32.772467
 30
0.0
 10
48.076272
 20
32.301346
 30
0.0
 10
48.145756
 20
31.667463
 30
0.0
 10
48.145756
 20
31.207125
 30
0.0
 10
48.145756
 20
30.746786
 30
0.0
 10
48.145756
 20
30.286448
 30
0.0
 10
48.145756
 20
29.826109
 30
0.0
 10
48.145733
 20
29.826109
 30
0.0
 10
48.145709
 20
29.826109
 30
0.0
 10
48.145686
 20
29.826109
 30
0.0
 10
48.145661
 20
29.826109
 30
0.0
  0
LWPOLYLINE
  5
10a
100
AcDbEntity
  8
logos
 62
7
100
AcDbPolyline
 90
21
 70
1
 10
47.488228
 20
31.062688
 30
0.0
 10
47.157874
 20
31.037348
 30
0.0
 10
46.773313
 20
30.912531
 30
0.0
 10
46.454563
 20
30.615043
 30
0.0
 10
46.321642
 20
30.071692
 30
0.0
 10
46.369213
 20
29.717182
 30
0.0
 10
46.491604
 20
29.484298
 30
0.0
 10
46.658329
 20
29.356614
 30
0.0
 10
46.838903
 20
29.317703
 30
0.0
 10
47.050966
 20
29.358530
 30
0.0
 10
47.232615
 20
29.479918
 30
0.0
 10
47.373074
 20
29.680222
 30
0.0
 10
47.461572
 20
29.957801
 30
0.0
 10
47.473129
 20
30.018397
 30
0.0
 10
47.481471
 20
30.080627
 30
0.0
 10
47.486522
 20
30.142770
 30
0.0
 10
47.488218
 20
30.203104
 30
0.0
 10
47.488218
 20
30.418000
 30
0.0
 10
47.488218
 20
30.632896
 30
0.0
 10
47.488218
 20
30.847792
 30
0.0
 10
47.488228
 20
31.062688
 30
0.0
  0
LWPOLYLINE
  5
10b
100
AcDbEntity
  8
logos
 62
7
100
AcDbPolyline
 90
41
 70
1
 10
51.170003
 20
28.966991
 30
0.0
 10
51.039570
 20
28.905337
 30
0.0
 10
50.875374
 20
28.855210
 30
0.0
 10
50.683185
 20
28.821525
 30
0.0
 10
50.468766
 20
28.809203
 30
0.0
 10
49.834169
 20
28.947554
 30
0.0
 10
49.344214
 20
29.357162
 30
0.0
 10
49.028519
 20
30.029855
 30
0.0
 10
48.916705
 20
30.957465
 30
0.0
 10
49.029164
 20
31.816860
 30
0.0
 10
49.356155
 20
32.519312
 30
0.0
 10
49.882099
 20
32.993260
 30
0.0
 10
50.591417
 20
33.167146
 30
0.0
 10
50.763434
 20
33.156422
 30
0.0
 10
50.928906
 20
33.127559
 30
0.0
 10
51.074685
 20
33.085520
 30
0.0
 10
51.187618
 20
33.035267
 30
0.0
 10
51.154788
 20
32.897215
 30
0.0
 10
51.121958
 20
32.759162
 30
0.0
 10
51.089129
 20
32.621110
 30
0.0
 10
51.056299
 20
32.483057
 30
0.0
 10
50.974672
 20
32.519465
 30
0.0
 10
50.864342
 20
32.556581
 30
0.0
 10
50.729390
 20
32.585430
 30
0.0
 10
50.573895
 20
32.597041
 30
0.0
 10
50.131850
 20
32.457975
 30
0.0
 10
49.826338
 20
32.089566
 30
0.0
 10
49.649092
 20
31.565002
 30
0.0
 10
49.591846
 20
30.957465
 30
0.0
 10
49.660478
 20
30.291418
 30
0.0
 10
49.858153
 20
29.792336
 30
0.0
 10
50.172545
 20
29.479066
 30
0.0
 10
50.591324
 20
29.370454
 30
0.0
 10
50.719689
 20
29.377146
 30
0.0
 10
50.842288
 20
29.397805
 30
0.0
 10
50.960029
 20
29.433282
 30
0.0
 10
51.073821
 20
29.484434
 30
0.0
 10
51.097866
 20
29.355073
 30
0.0
 10
51.121912
 20
29.225711
 30
0.0
 10
51.145957
 20
29.096349
 30
0.0
 10
51.170003
 20
28.966991
 30
0.0
  0
LWPOLYLINE
  5
10c
100
AcDbEntity
  8
logos
 62
7
100
AcDbPolyline
 90
61
 70
1
 10
52.406209
 20
31.132681
 30
0.0
 10
52.410561
 20
31.132681
 30
0.0
 10
52.414923
 20
31.132681
 30
0.0
 10
52.419275
 20
31.132681
 30
0.0
 10
52.423628
 20
31.132681
 30
0.0
 10
52.481265
 20
31.257253
 30
0.0
 10
52.537391
 20
31.379300
 30
0.0
 10
52.593603
 20
31.496472
 30
0.0
 10
52.651502
 20
31.606417
 30
0.0
 10
52.861971
 20
31.981198
 30
0.0
 10
53.072440
 20
32.355979
 30
0.0
 10
53.282909
 20
32.730760
 30
0.0
 10
53.493378
 20
33.105540
 30
0.0
 10
53.675305
 20
33.105540
 30
0.0
 10
53.857231
 20
33.105540
 30
0.0
 10
54.039158
 20
33.105540
 30
0.0
 10
54.221084
 20
33.105540
 30
0.0
 10
53.940459
 20
32.658390
 30
0.0
 10
53.659834
 20
32.211239
 30
0.0
 10
53.379208
 20
31.764088
 30
0.0
 10
53.098583
 20
31.316938
 30
0.0
 10
53.405491
 20
30.703145
 30
0.0
 10
53.712399
 20
30.089353
 30
0.0
 10
54.019306
 20
29.475561
 30
0.0
 10
54.326214
 20
28.861768
 30
0.0
 10
54.137624
 20
28.861768
 30
0.0
 10
53.949033
 20
28.861768
 30
0.0
 10
53.760443
 20
28.861768
 30
0.0
 10
53.571853
 20
28.861768
 30
0.0
 10
53.341742
 20
29.361554
 30
0.0
 10
53.111631
 20
29.861339
 30
0.0
 10
52.881520
 20
30.361124
 30
0.0
 10
52.651409
 20
30.860910
 30
0.0
 10
52.590083
 20
30.762304
 30
0.0
 10
52.528758
 20
30.663698
 30
0.0
 10
52.467432
 20
30.565093
 30
0.0
 10
52.406106
 20
30.466487
 30
0.0
 10
52.406106
 20
30.065331
 30
0.0
 10
52.406106
 20
29.664174
 30
0.0
 10
52.406106
 20
29.263018
 30
0.0
 10
52.406106
 20
28.861862
 30
0.0
 10
52.239418
 20
28.861862
 30
0.0
 10
52.072730
 20
28.861862
 30
0.0
 10
51.906041
 20
28.861862
 30
0.0
 10
51.739353
 20
28.861862
 30
0.0
 10
51.739353
 20
30.378763
 30
0.0
 10
51.739353
 20
31.895664
 30
0.0
 10
51.739353
 20
33.412565
 30
0.0
 10
51.739353
 20
34.929466
 30
0.0
 10
51.906041
 20
34.929466
 30
0.0
 10
52.072730
 20
34.929466
 30
0.0
 10
52.239418
 20
34.929466
 30
0.0
 10
52.406106
 20
34.929466
 30
0.0
 10
52.406106
 20
33.980270
 30
0.0
 10
52.406106
 20
33.031073
 30
0.0
 10
52.406106
 20
32.081877
 30
0.0
 10
52.406106
 20
31.132681
 30
0.0
 10
52.406130
 20
31.132681
 30
0.0
 10
52.406153
 20
31.132681
 30
0.0
 10
52.406176
 20
31.132681
 30
0.0
 10
52.406209
 20
31.132681
 30
0.0
  0
ENDSEC
  0
SECTION
  2
OBJECTS
  0
DICTIONARY
  5
C
330
0
100
AcDbDictionary
  3
ACAD_GROUP
350
D
  3
ACAD_MLINESTYLE
350
17
  0
DICTIONARY
  5
D
330
C
100
AcDbDictionary
  0
DICTIONARY
  5
1A
330
C
100
AcDbDictionary
  0
DICTIONARY
  5
17
330
C
100
AcDbDictionary
  3
STANDARD
350
18
  0
DICTIONARY
  5
19
330
C
100
AcDbDictionary
  0
ENDSEC
  0
EOF
