  0
SECTION
  2
HEADER
  9
$ACADVER
  1
AC1014
  9
$HANDSEED
  5
FFFF
  9
$MEASUREMENT
 70
     1
  0
ENDSEC
  0
SECTION
  2
TABLES
  0
TABLE
  2
VPORT
  5
8
330
0
100
AcDbSymbolTable
 70
     4
  0
VPORT
  5
2E
330
8
100
AcDbSymbolTableRecord
100
AcDbViewportTableRecord
  2
*ACTIVE
 70
     0
 10
0.0
 20
0.0
 11
1.0
 21
1.0
 12
210.0
 22
148.5
 13
0.0
 23
0.0
 14
10.0
 24
10.0
 15
10.0
 25
10.0
 16
0.0
 26
0.0
 36
1.0
 17
0.0
 27
0.0
 37
0.0
 40
341.0
 41
1.24
 42
50.0
 43
0.0
 44
0.0
 50
0.0
 51
0.0
 71
     0
 72
   100
 73
     1
 74
     3
 75
     0
 76
     0
 77
     0
 78
     0
  0
ENDTAB
  0
TABLE
  2
LTYPE
  5
5
330
0
100
AcDbSymbolTable
 70
     1
  0
LTYPE
  5
14
330
5
100
AcDbSymbolTableRecord
100
AcDbLinetypeTableRecord
  2
BYBLOCK
 70
     0
  3

 72
    65
 73
     0
 40
0.0
  0
LTYPE
  5
15
330
5
100
AcDbSymbolTableRecord
100
AcDbLinetypeTableRecord
  2
BYLAYER
 70
     0
  3

 72
    65
 73
     0
 40
0.0
  0
LTYPE
  5
16
330
5
100
AcDbSymbolTableRecord
100
AcDbLinetypeTableRecord
  2
CONTINUOUS
 70
     0
  3
Solid line
 72
    65
 73
     0
 40
0.0
  0
ENDTAB
  0
TABLE
  2
LAYER
  5
2
100
AcDbSymbolTable
 70
3
  0
LAYER
  5
50
100
AcDbSymbolTableRecord
100
AcDbLayerTableRecord
  2
0
 70
0
  6
CONTINUOUS
  0
LAYER
  5
51
100
AcDbSymbolTableRecord
100
AcDbLayerTableRecord
  2
Artwork
 70
0
  6
CONTINUOUS
  0
LAYER
  5
52
100
AcDbSymbolTableRecord
100
AcDbLayerTableRecord
  2
logos
 70
0
  6
CONTINUOUS
  0
ENDTAB
  0
TABLE
  2
STYLE
  5
3
330
0
100
AcDbSymbolTable
 70
     1
  0
STYLE
  5
11
330
3
100
AcDbSymbolTableRecord
100
AcDbTextStyleTableRecord
  2
STANDARD
 70
     0
 40
0.0
 41
1.0
 50
0.0
 71
     0
 42
2.5
  3
txt
  4

  0
ENDTAB
  0
TABLE
  2
VIEW
  5
6
330
0
100
AcDbSymbolTable
 70
     0
  0
ENDTAB
  0
TABLE
  2
UCS
  5
7
330
0
100
AcDbSymbolTable
 70
     0
  0
ENDTAB
  0
TABLE
  2
APPID
  5
9
330
0
100
AcDbSymbolTable
 70
     2
  0
APPID
  5
12
330
9
100
AcDbSymbolTableRecord
100
AcDbRegAppTableRecord
  2
ACAD
 70
     0
  0
ENDTAB
  0
TABLE
  2
DIMSTYLE
  5
A
330
0
100
AcDbSymbolTable
 70
     1
  0
DIMSTYLE
105
27
330
A
100
AcDbSymbolTableRecord
100
AcDbDimStyleTableRecord
  2
ISO-25
 70
     0
  3

  4

  5

  6

  7

 40
1.0
 41
2.5
 42
0.625
 43
3.75
 44
1.25
 45
0.0
 46
0.0
 47
0.0
 48
0.0
140
2.5
141
2.5
142
0.0
143
0.03937007874016
144
1.0
145
0.0
146
1.0
147
0.625
 71
     0
 72
     0
 73
     0
 74
     0
 75
     0
 76
     0
 77
     1
 78
     8
170
     0
171
     3
172
     1
173
     0
174
     0
175
     0
176
     0
177
     0
178
     0
270
     2
271
     2
272
     2
273
     2
274
     3
340
11
275
     0
280
     0
281
     0
282
     0
283
     0
284
     8
285
     0
286
     0
287
     3
288
     0
  0
ENDTAB
  0
TABLE
  2
BLOCK_RECORD
  5
1
330
0
100
AcDbSymbolTable
 70
     1
  0
BLOCK_RECORD
  5
1F
330
1
100
AcDbSymbolTableRecord
100
AcDbBlockTableRecord
  2
*MODEL_SPACE
  0
BLOCK_RECORD
  5
1B
330
1
100
AcDbSymbolTableRecord
100
AcDbBlockTableRecord
  2
*PAPER_SPACE
  0
ENDTAB
  0
ENDSEC
  0
SECTION
  2
BLOCKS
  0
BLOCK
  5
20
330
1F
100
AcDbEntity
  8
0
100
AcDbBlockBegin
  2
*MODEL_SPACE
 70
     0
 10
0.0
 20
0.0
 30
0.0
  3
*MODEL_SPACE
  1

  0
ENDBLK
  5
21
330
1F
100
AcDbEntity
  8
0
100
AcDbBlockEnd
  0
BLOCK
  5
1C
330
1B
100
AcDbEntity
 67
     1
  8
0
100
AcDbBlockBegin
  2
*PAPER_SPACE
  1

  0
ENDBLK
  5
1D
330
1B
100
AcDbEntity
 67
     1
  8
0
100
AcDbBlockEnd
  0
ENDSEC
  0
SECTION
  2
ENTITIES
  0
LWPOLYLINE
  5
100
100
AcDbEntity
  8
logos
 62
7
100
AcDbPolyline
 90
65
 70
0
 10
27.537814
 20
39.450423
 30
0.0
 10
27.545892
 20
39.212606
 30
0.0
 10
27.570125
 20
38.987540
 30
0.0
 10
27.610512
 20
38.775227
 30
0.0
 10
27.667049
 20
38.575669
 30
0.0
 10
27.739735
 20
38.388868
 30
0.0
 10
27.828568
 20
38.214827
 30
0.0
 10
27.933546
 20
38.053546
 30
0.0
 10
28.054668
 20
37.905029
 30
0.0
 10
28.192399
 20
37.770152
 30
0.0
 10
28.340717
 20
37.653258
 30
0.0
 10
28.499618
 20
37.554348
 30
0.0
 10
28.669099
 20
37.473422
 30
0.0
 10
28.849155
 20
37.410479
 30
0.0
 10
29.039781
 20
37.365520
 30
0.0
 10
29.240976
 20
37.338545
 30
0.0
 10
29.452733
 20
37.329553
 30
0.0
 10
29.665924
 20
37.338440
 30
0.0
 10
29.868118
 20
37.365100
 30
0.0
 10
30.059323
 20
37.409531
 30
0.0
 10
30.239548
 20
37.471731
 30
0.0
 10
30.408800
 20
37.551697
 30
0.0
 10
30.567087
 20
37.649429
 30
0.0
 10
30.714417
 20
37.764923
 30
0.0
 10
30.850799
 20
37.898178
 30
0.0
 10
30.973470
 20
38.046335
 30
0.0
 10
31.079792
 20
38.206405
 30
0.0
 10
31.169763
 20
38.378390
 30
0.0
 10
31.243379
 20
38.562288
 30
0.0
 10
31.300640
 20
38.758101
 30
0.0
 10
31.341543
 20
38.965829
 30
0.0
 10
31.366086
 20
39.185470
 30
0.0
 10
31.374267
 20
39.417025
 30
0.0
 10
31.366086
 20
39.648524
 30
0.0
 10
31.341543
 20
39.868123
 30
0.0
 10
31.300640
 20
40.075820
 30
0.0
 10
31.243379
 20
40.271612
 30
0.0
 10
31.169763
 20
40.455498
 30
0.0
 10
31.079792
 20
40.627477
 30
0.0
 10
30.973470
 20
40.787545
 30
0.0
 10
30.850799
 20
40.935701
 30
0.0
 10
30.712956
 20
41.070571
 30
0.0
 10
30.564558
 20
41.187445
 30
0.0
 10
30.405609
 20
41.286328
 30
0.0
 10
30.236113
 20
41.367223
 30
0.0
 10
30.056073
 20
41.430134
 30
0.0
 10
29.865494
 20
41.475065
 30
0.0
 10
29.664379
 20
41.502022
 30
0.0
 10
29.452733
 20
41.511006
 30
0.0
 10
29.244125
 20
41.502022
 30
0.0
 10
29.045642
 20
41.475065
 30
0.0
 10
28.857292
 20
41.430134
 30
0.0
 10
28.679086
 20
41.367223
 30
0.0
 10
28.511033
 20
41.286328
 30
0.0
 10
28.353145
 20
41.187445
 30
0.0
 10
28.205430
 20
41.070571
 30
0.0
 10
28.067898
 20
40.935701
 30
0.0
 10
27.943627
 20
40.786613
 30
0.0
 10
27.835939
 20
40.627083
 30
0.0
 10
27.744829
 20
40.457109
 30
0.0
 10
27.670293
 20
40.276686
 30
0.0
 10
27.612327
 20
40.085810
 30
0.0
 10
27.570929
 20
39.884477
 30
0.0
 10
27.546092
 20
39.672683
 30
0.0
 10
27.537814
 20
39.450423
 30
0.0
  0
LWPOLYLINE
  5
101
100
AcDbEntity
  8
logos
 62
7
100
AcDbPolyline
 90
65
 70
0
 10
26.013885
 20
39.477142
 30
0.0
 10
26.029504
 20
39.823487
 30
0.0
 10
26.076366
 20
40.156664
 30
0.0
 10
26.154486
 20
40.476670
 30
0.0
 10
26.263873
 20
40.783504
 30
0.0
 10
26.404541
 20
41.077162
 30
0.0
 10
26.576501
 20
41.357645
 30
0.0
 10
26.779765
 20
41.624948
 30
0.0
 10
27.014345
 20
41.879071
 30
0.0
 10
27.271291
 20
42.111132
 30
0.0
 10
27.541901
 20
42.312252
 30
0.0
 10
27.826179
 20
42.482430
 30
0.0
 10
28.124130
 20
42.621667
 30
0.0
 10
28.435756
 20
42.729962
 30
0.0
 10
28.761063
 20
42.807316
 30
0.0
 10
29.100054
 20
42.853728
 30
0.0
 10
29.452733
 20
42.869199
 30
0.0
 10
29.806961
 20
42.853624
 30
0.0
 10
30.147544
 20
42.806899
 30
0.0
 10
30.474478
 20
42.729023
 30
0.0
 10
30.787761
 20
42.619997
 30
0.0
 10
31.087392
 20
42.479821
 30
0.0
 10
31.373369
 20
42.308495
 30
0.0
 10
31.645689
 20
42.106018
 30
0.0
 10
31.904352
 20
41.872392
 30
0.0
 10
32.137291
 20
41.616028
 30
0.0
 10
32.339185
 20
41.345466
 30
0.0
 10
32.510029
 20
41.060701
 30
0.0
 10
32.649820
 20
40.761731
 30
0.0
 10
32.758553
 20
40.448550
 30
0.0
 10
32.836224
 20
40.121154
 30
0.0
 10
32.882830
 20
39.779541
 30
0.0
 10
32.898366
 20
39.423705
 30
0.0
 10
32.882726
 20
39.064835
 30
0.0
 10
32.835810
 20
38.720801
 30
0.0
 10
32.757622
 20
38.391604
 30
0.0
 10
32.648166
 20
38.077244
 30
0.0
 10
32.507445
 20
37.777720
 30
0.0
 10
32.335464
 20
37.493033
 30
0.0
 10
32.132226
 20
37.223182
 30
0.0
 10
31.897736
 20
36.968167
 30
0.0
 10
31.638764
 20
36.737672
 30
0.0
 10
31.365513
 20
36.537909
 30
0.0
 10
31.077986
 20
36.368878
 30
0.0
 10
30.776184
 20
36.230581
 30
0.0
 10
30.460109
 20
36.123016
 30
0.0
 10
30.129765
 20
36.046184
 30
0.0
 10
29.785151
 20
36.000085
 30
0.0
 10
29.426271
 20
35.984719
 30
0.0
 10
29.070843
 20
36.000399
 30
0.0
 10
28.730101
 20
36.047440
 30
0.0
 10
28.404053
 20
36.125843
 30
0.0
 10
28.092706
 20
36.235612
 30
0.0
 10
27.796070
 20
36.376748
 30
0.0
 10
27.514151
 20
36.549253
 30
0.0
 10
27.246958
 20
36.753129
 30
0.0
 10
26.994499
 20
36.988377
 30
0.0
 10
26.764570
 20
37.243857
 30
0.0
 10
26.565337
 20
37.515231
 30
0.0
 10
26.396788
 20
37.802497
 30
0.0
 10
26.258912
 20
38.105654
 30
0.0
 10
26.151695
 20
38.424699
 30
0.0
 10
26.075126
 20
38.759629
 30
0.0
 10
26.029194
 20
39.110445
 30
0.0
 10
26.013885
 20
39.477142
 30
0.0
  0
LWPOLYLINE
  5
102
100
AcDbEntity
  8
logos
 62
7
100
AcDbPolyline
 90
65
 70
1
 10
39.121698
 20
45.197774
 30
0.0
 10
39.045385
 20
45.194122
 30
0.0
 10
38.971996
 20
45.183191
 30
0.0
 10
38.901468
 20
45.165025
 30
0.0
 10
38.833752
 20
45.139658
 30
0.0
 10
38.768790
 20
45.107131
 30
0.0
 10
38.706523
 20
45.067482
 30
0.0
 10
38.646901
 20
45.020751
 30
0.0
 10
38.589867
 20
44.966978
 30
0.0
 10
38.537531
 20
44.908309
 30
0.0
 10
38.492071
 20
44.846992
 30
0.0
 10
38.453517
 20
44.783022
 30
0.0
 10
38.421899
 20
44.716393
 30
0.0
 10
38.397261
 20
44.647100
 30
0.0
 10
38.379622
 20
44.575137
 30
0.0
 10
38.369011
 20
44.500500
 30
0.0
 10
38.365455
 20
44.423182
 30
0.0
 10
38.369011
 20
44.342091
 30
0.0
 10
38.379622
 20
44.264196
 30
0.0
 10
38.397261
 20
44.189492
 30
0.0
 10
38.421899
 20
44.117970
 30
0.0
 10
38.453517
 20
44.049625
 30
0.0
 10
38.492071
 20
43.984449
 30
0.0
 10
38.537531
 20
43.922435
 30
0.0
 10
38.589867
 20
43.863578
 30
0.0
 10
38.647022
 20
43.809755
 30
0.0
 10
38.706995
 20
43.763001
 30
0.0
 10
38.769814
 20
43.723350
 30
0.0
 10
38.835519
 20
43.690833
 30
0.0
 10
38.904141
 20
43.665484
 30
0.0
 10
38.975712
 20
43.647337
 30
0.0
 10
39.050270
 20
43.636427
 30
0.0
 10
39.127844
 20
43.632783
 30
0.0
 10
39.205433
 20
43.636427
 30
0.0
 10
39.279987
 20
43.647337
 30
0.0
 10
39.351497
 20
43.665484
 30
0.0
 10
39.419941
 20
43.690833
 30
0.0
 10
39.485304
 20
43.723350
 30
0.0
 10
39.547571
 20
43.763001
 30
0.0
 10
39.606725
 20
43.809755
 30
0.0
 10
39.662749
 20
43.863578
 30
0.0
 10
39.714951
 20
43.922311
 30
0.0
 10
39.760064
 20
43.983965
 30
0.0
 10
39.798128
 20
44.048570
 30
0.0
 10
39.829181
 20
44.116153
 30
0.0
 10
39.853254
 20
44.186745
 30
0.0
 10
39.870413
 20
44.260374
 30
0.0
 10
39.880686
 20
44.337069
 30
0.0
 10
39.884101
 20
44.416859
 30
0.0
 10
39.880686
 20
44.496604
 30
0.0
 10
39.870413
 20
44.573258
 30
0.0
 10
39.853254
 20
44.646797
 30
0.0
 10
39.829181
 20
44.717199
 30
0.0
 10
39.798128
 20
44.784441
 30
0.0
 10
39.760064
 20
44.848500
 30
0.0
 10
39.714951
 20
44.909353
 30
0.0
 10
39.662749
 20
44.966978
 30
0.0
 10
39.605460
 20
45.020751
 30
0.0
 10
39.545141
 20
45.067482
 30
0.0
 10
39.481827
 20
45.107131
 30
0.0
 10
39.415561
 20
45.139658
 30
0.0
 10
39.346375
 20
45.165025
 30
0.0
 10
39.274312
 20
45.183191
 30
0.0
 10
39.199407
 20
45.194122
 30
0.0
 10
39.121698
 20
45.197774
 30
0.0
  0
LWPOLYLINE
  5
103
100
AcDbEntity
  8
logos
 62
7
100
AcDbPolyline
 90
33
 70
1
 10
38.396194
 20
42.886642
 30
0.0
 10
38.396194
 20
42.049212
 30
0.0
 10
38.396194
 20
41.211782
 30
0.0
 10
38.396194
 20
40.374352
 30
0.0
 10
38.396194
 20
39.536923
 30
0.0
 10
38.396194
 20
38.699493
 30
0.0
 10
38.396194
 20
37.862063
 30
0.0
 10
38.396194
 20
37.024634
 30
0.0
 10
38.396194
 20
36.187204
 30
0.0
 10
38.578338
 20
36.187204
 30
0.0
 10
38.760484
 20
36.187204
 30
0.0
 10
38.942628
 20
36.187204
 30
0.0
 10
39.124771
 20
36.187204
 30
0.0
 10
39.306914
 20
36.187204
 30
0.0
 10
39.489061
 20
36.187204
 30
0.0
 10
39.671204
 20
36.187204
 30
0.0
 10
39.853347
 20
36.187204
 30
0.0
 10
39.853347
 20
37.024634
 30
0.0
 10
39.853347
 20
37.862063
 30
0.0
 10
39.853347
 20
38.699493
 30
0.0
 10
39.853347
 20
39.536923
 30
0.0
 10
39.853347
 20
40.374352
 30
0.0
 10
39.853347
 20
41.211782
 30
0.0
 10
39.853347
 20
42.049212
 30
0.0
 10
39.853347
 20
42.886642
 30
0.0
 10
39.671204
 20
42.886642
 30
0.0
 10
39.489061
 20
42.886642
 30
0.0
 10
39.306914
 20
42.886642
 30
0.0
 10
39.124771
 20
42.886642
 30
0.0
 10
38.942628
 20
42.886642
 30
0.0
 10
38.760484
 20
42.886642
 30
0.0
 10
38.578338
 20
42.886642
 30
0.0
 10
38.396194
 20
42.886642
 30
0.0
  0
LWPOLYLINE
  5
104
100
AcDbEntity
  8
logos
 62
7
100
AcDbPolyline
 90
33
 70
0
 10
50.281537
 20
36.187204
 30
0.0
 10
50.099338
 20
36.187204
 30
0.0
 10
49.917135
 20
36.187204
 30
0.0
 10
49.734935
 20
36.187204
 30
0.0
 10
49.552735
 20
36.187204
 30
0.0
 10
49.370533
 20
36.187204
 30
0.0
 10
49.188333
 20
36.187204
 30
0.0
 10
49.006130
 20
36.187204
 30
0.0
 10
48.823930
 20
36.187204
 30
0.0
 10
48.823930
 20
37.024627
 30
0.0
 10
48.823930
 20
37.862049
 30
0.0
 10
48.823930
 20
38.699472
 30
0.0
 10
48.823930
 20
39.536894
 30
0.0
 10
48.823930
 20
40.374317
 30
0.0
 10
48.823930
 20
41.211739
 30
0.0
 10
48.823930
 20
42.049161
 30
0.0
 10
48.823930
 20
42.886584
 30
0.0
 10
49.006130
 20
42.886584
 30
0.0
 10
49.188333
 20
42.886584
 30
0.0
 10
49.370533
 20
42.886584
 30
0.0
 10
49.552735
 20
42.886584
 30
0.0
 10
49.734935
 20
42.886584
 30
0.0
 10
49.917135
 20
42.886584
 30
0.0
 10
50.099338
 20
42.886584
 30
0.0
 10
50.281537
 20
42.886584
 30
0.0
 10
50.281537
 20
42.049161
 30
0.0
 10
50.281537
 20
41.211739
 30
0.0
 10
50.281537
 20
40.374317
 30
0.0
 10
50.281537
 20
39.536894
 30
0.0
 10
50.281537
 20
38.699472
 30
0.0
 10
50.281537
 20
37.862049
 30
0.0
 10
50.281537
 20
37.024627
 30
0.0
 10
50.281537
 20
36.187204
 30
0.0
  0
LWPOLYLINE
  5
105
100
AcDbEntity
  8
logos
 62
7
100
AcDbPolyline
 90
65
 70
0
 10
48.793416
 20
44.424191
 30
0.0
 10
48.796916
 20
44.501524
 30
0.0
 10
48.807386
 20
44.576188
 30
0.0
 10
48.824828
 20
44.648188
 30
0.0
 10
48.849240
 20
44.717528
 30
0.0
 10
48.880595
 20
44.784211
 30
0.0
 10
48.918901
 20
44.848241
 30
0.0
 10
48.964155
 20
44.909624
 30
0.0
 10
49.016349
 20
44.968362
 30
0.0
 10
49.073449
 20
45.022081
 30
0.0
 10
49.133299
 20
45.068657
 30
0.0
 10
49.195902
 20
45.108085
 30
0.0
 10
49.261259
 20
45.140357
 30
0.0
 10
49.329365
 20
45.165469
 30
0.0
 10
49.400225
 20
45.183413
 30
0.0
 10
49.473837
 20
45.194182
 30
0.0
 10
49.550201
 20
45.197775
 30
0.0
 10
49.627736
 20
45.194182
 30
0.0
 10
49.702378
 20
45.183413
 30
0.0
 10
49.774119
 20
45.165469
 30
0.0
 10
49.842956
 20
45.140357
 30
0.0
 10
49.908886
 20
45.108085
 30
0.0
 10
49.971906
 20
45.068657
 30
0.0
 10
50.032008
 20
45.022081
 30
0.0
 10
50.089192
 20
44.968362
 30
0.0
 10
50.141386
 20
44.910762
 30
0.0
 10
50.186640
 20
44.849983
 30
0.0
 10
50.224946
 20
44.786032
 30
0.0
 10
50.256301
 20
44.718915
 30
0.0
 10
50.280685
 20
44.648636
 30
0.0
 10
50.298126
 20
44.575204
 30
0.0
 10
50.308597
 20
44.498623
 30
0.0
 10
50.312096
 20
44.418899
 30
0.0
 10
50.308597
 20
44.339039
 30
0.0
 10
50.298126
 20
44.262176
 30
0.0
 10
50.280685
 20
44.188313
 30
0.0
 10
50.256301
 20
44.117454
 30
0.0
 10
50.224946
 20
44.049605
 30
0.0
 10
50.186640
 20
43.984767
 30
0.0
 10
50.141386
 20
43.922946
 30
0.0
 10
50.089192
 20
43.864145
 30
0.0
 10
50.033236
 20
43.810376
 30
0.0
 10
49.974200
 20
43.763777
 30
0.0
 10
49.912086
 20
43.724347
 30
0.0
 10
49.846895
 20
43.692086
 30
0.0
 10
49.778623
 20
43.666993
 30
0.0
 10
49.707275
 20
43.649069
 30
0.0
 10
49.632847
 20
43.638317
 30
0.0
 10
49.555340
 20
43.634732
 30
0.0
 10
49.477802
 20
43.638317
 30
0.0
 10
49.403163
 20
43.649069
 30
0.0
 10
49.331422
 20
43.666993
 30
0.0
 10
49.262583
 20
43.692086
 30
0.0
 10
49.196653
 20
43.724347
 30
0.0
 10
49.133635
 20
43.763777
 30
0.0
 10
49.073533
 20
43.810376
 30
0.0
 10
49.016349
 20
43.864145
 30
0.0
 10
48.964155
 20
43.923026
 30
0.0
 10
48.918904
 20
43.985090
 30
0.0
 10
48.880595
 20
44.050334
 30
0.0
 10
48.849240
 20
44.118757
 30
0.0
 10
48.824828
 20
44.190355
 30
0.0
 10
48.807386
 20
44.265129
 30
0.0
 10
48.796916
 20
44.343075
 30
0.0
 10
48.793416
 20
44.424191
 30
0.0
  0
LWPOLYLINE
  5
106
100
AcDbEntity
  8
logos
 62
7
100
AcDbPolyline
 90
113
 70
1
 10
44.335589
 20
42.869200
 30
0.0
 10
43.982927
 20
42.853858
 30
0.0
 10
43.643871
 20
42.807787
 30
0.0
 10
43.318441
 20
42.730916
 30
0.0
 10
43.006653
 20
42.623175
 30
0.0
 10
42.708525
 20
42.484491
 30
0.0
 10
42.424076
 20
42.314796
 30
0.0
 10
42.153320
 20
42.114018
 30
0.0
 10
41.896281
 20
41.882086
 30
0.0
 10
41.661779
 20
41.627846
 30
0.0
 10
41.458616
 20
41.360233
 30
0.0
 10
41.286768
 20
41.079317
 30
0.0
 10
41.146219
 20
40.785166
 30
0.0
 10
41.036937
 20
40.477848
 30
0.0
 10
40.958908
 20
40.157432
 30
0.0
 10
40.912107
 20
39.823987
 30
0.0
 10
40.896500
 20
39.477580
 30
0.0
 10
40.911825
 20
39.110913
 30
0.0
 10
40.957796
 20
38.760284
 30
0.0
 10
41.034411
 20
38.425649
 30
0.0
 10
41.141680
 20
38.106963
 30
0.0
 10
41.279600
 20
37.804182
 30
0.0
 10
41.448174
 20
37.517260
 30
0.0
 10
41.647403
 20
37.246153
 30
0.0
 10
41.877290
 20
36.990815
 30
0.0
 10
42.129851
 20
36.755461
 30
0.0
 10
42.397202
 20
36.551309
 30
0.0
 10
42.679317
 20
36.378414
 30
0.0
 10
42.976164
 20
36.236831
 30
0.0
 10
43.287712
 20
36.126615
 30
0.0
 10
43.613933
 20
36.047820
 30
0.0
 10
43.954795
 20
36.000504
 30
0.0
 10
44.310268
 20
35.984719
 30
0.0
 10
44.472673
 20
35.987894
 30
0.0
 10
44.632109
 20
35.997382
 30
0.0
 10
44.788610
 20
36.013133
 30
0.0
 10
44.942212
 20
36.035096
 30
0.0
 10
45.092950
 20
36.063219
 30
0.0
 10
45.240862
 20
36.097452
 30
0.0
 10
45.385981
 20
36.137743
 30
0.0
 10
45.528342
 20
36.184042
 30
0.0
 10
45.588061
 20
36.091500
 30
0.0
 10
45.647776
 20
35.998959
 30
0.0
 10
45.707494
 20
35.906417
 30
0.0
 10
45.767212
 20
35.813875
 30
0.0
 10
45.826928
 20
35.721333
 30
0.0
 10
45.886646
 20
35.628791
 30
0.0
 10
45.946361
 20
35.536249
 30
0.0
 10
46.006080
 20
35.443707
 30
0.0
 10
46.225262
 20
35.069085
 30
0.0
 10
46.380806
 20
34.722212
 30
0.0
 10
46.472709
 20
34.403126
 30
0.0
 10
46.500970
 20
34.111866
 30
0.0
 10
46.465591
 20
33.848471
 30
0.0
 10
46.366571
 20
33.612980
 30
0.0
 10
46.203909
 20
33.405433
 30
0.0
 10
45.977603
 20
33.225867
 30
0.0
 10
45.859581
 20
33.160028
 30
0.0
 10
45.690222
 20
33.077664
 30
0.0
 10
45.490019
 20
32.986953
 30
0.0
 10
45.279470
 20
32.896071
 30
0.0
 10
45.079070
 20
32.813193
 30
0.0
 10
44.909313
 20
32.746495
 30
0.0
 10
44.790695
 20
32.704154
 30
0.0
 10
44.743714
 20
32.694344
 30
0.0
 10
44.823600
 20
32.523497
 30
0.0
 10
44.903488
 20
32.352651
 30
0.0
 10
44.983374
 20
32.181804
 30
0.0
 10
45.063260
 20
32.010958
 30
0.0
 10
45.143146
 20
31.840111
 30
0.0
 10
45.223034
 20
31.669265
 30
0.0
 10
45.302920
 20
31.498418
 30
0.0
 10
45.382806
 20
31.327572
 30
0.0
 10
45.926386
 20
31.475920
 30
0.0
 10
46.522879
 20
31.740072
 30
0.0
 10
47.109354
 20
32.117203
 30
0.0
 10
47.622897
 20
32.604491
 30
0.0
 10
48.000578
 20
33.199111
 30
0.0
 10
48.179476
 20
33.898241
 30
0.0
 10
48.096669
 20
34.699056
 30
0.0
 10
47.689233
 20
35.598734
 30
0.0
 10
47.577312
 20
35.771953
 30
0.0
 10
47.465394
 20
35.945173
 30
0.0
 10
47.353473
 20
36.118392
 30
0.0
 10
47.241553
 20
36.291611
 30
0.0
 10
47.129632
 20
36.464830
 30
0.0
 10
47.017714
 20
36.638050
 30
0.0
 10
46.905793
 20
36.811269
 30
0.0
 10
46.793872
 20
36.984488
 30
0.0
 10
47.025071
 20
37.238329
 30
0.0
 10
47.225505
 20
37.506686
 30
0.0
 10
47.395155
 20
37.789596
 30
0.0
 10
47.534003
 20
38.087098
 30
0.0
 10
47.642029
 20
38.399231
 30
0.0
 10
47.719214
 20
38.726033
 30
0.0
 10
47.765538
 20
39.067542
 30
0.0
 10
47.780975
 20
39.423797
 30
0.0
 10
47.765453
 20
39.779588
 30
0.0
 10
47.718912
 20
40.121191
 30
0.0
 10
47.641332
 20
40.448602
 30
0.0
 10
47.532704
 20
40.761814
 30
0.0
 10
47.393021
 20
41.060825
 30
0.0
 10
47.222268
 20
41.345628
 30
0.0
 10
47.020440
 20
41.616220
 30
0.0
 10
46.787525
 20
41.872596
 30
0.0
 10
46.528902
 20
42.106214
 30
0.0
 10
46.256583
 20
42.308668
 30
0.0
 10
45.970573
 20
42.479962
 30
0.0
 10
45.670887
 20
42.620100
 30
0.0
 10
45.357533
 20
42.729089
 30
0.0
 10
45.030519
 20
42.806932
 30
0.0
 10
44.689860
 20
42.853634
 30
0.0
 10
44.335589
 20
42.869200
 30
0.0
  0
LWPOLYLINE
  5
107
100
AcDbEntity
  8
logos
 62
7
100
AcDbPolyline
 90
65
 70
1
 10
44.335589
 20
41.511919
 30
0.0
 10
44.547304
 20
41.502914
 30
0.0
 10
44.748497
 20
41.475899
 30
0.0
 10
44.939155
 20
41.430886
 30
0.0
 10
45.119267
 20
41.367881
 30
0.0
 10
45.288820
 20
41.286893
 30
0.0
 10
45.447799
 20
41.187928
 30
0.0
 10
45.596197
 20
41.070996
 30
0.0
 10
45.733998
 20
40.936104
 30
0.0
 10
45.856657
 20
40.787950
 30
0.0
 10
45.962840
 20
40.627886
 30
0.0
 10
46.052581
 20
40.455914
 30
0.0
 10
46.125925
 20
40.272035
 30
0.0
 10
46.182903
 20
40.076250
 30
0.0
 10
46.223554
 20
39.868560
 30
0.0
 10
46.247910
 20
39.648965
 30
0.0
 10
46.256038
 20
39.417468
 30
0.0
 10
46.247910
 20
39.185915
 30
0.0
 10
46.223554
 20
38.966280
 30
0.0
 10
46.182903
 20
38.758566
 30
0.0
 10
46.125925
 20
38.562773
 30
0.0
 10
46.052581
 20
38.378902
 30
0.0
 10
45.962840
 20
38.206954
 30
0.0
 10
45.856657
 20
38.046931
 30
0.0
 10
45.733998
 20
37.898833
 30
0.0
 10
45.597650
 20
37.765676
 30
0.0
 10
45.450305
 20
37.650443
 30
0.0
 10
45.291964
 20
37.553080
 30
0.0
 10
45.122639
 20
37.473535
 30
0.0
 10
44.942330
 20
37.411758
 30
0.0
 10
44.751052
 20
37.367696
 30
0.0
 10
44.548800
 20
37.341297
 30
0.0
 10
44.335589
 20
37.332508
 30
0.0
 10
44.123872
 20
37.341373
 30
0.0
 10
43.922679
 20
37.368012
 30
0.0
 10
43.732020
 20
37.412498
 30
0.0
 10
43.551909
 20
37.474903
 30
0.0
 10
43.382358
 20
37.555299
 30
0.0
 10
43.223377
 20
37.653760
 30
0.0
 10
43.074979
 20
37.770357
 30
0.0
 10
42.937178
 20
37.905162
 30
0.0
 10
42.816108
 20
38.053697
 30
0.0
 10
42.711259
 20
38.215131
 30
0.0
 10
42.622611
 20
38.389424
 30
0.0
 10
42.550136
 20
38.576531
 30
0.0
 10
42.493810
 20
38.776412
 30
0.0
 10
42.453607
 20
38.989024
 30
0.0
 10
42.429506
 20
39.214325
 30
0.0
 10
42.421462
 20
39.452272
 30
0.0
 10
42.429675
 20
39.674420
 30
0.0
 10
42.454341
 20
39.886027
 30
0.0
 10
42.495484
 20
40.087127
 30
0.0
 10
42.553153
 20
40.277749
 30
0.0
 10
42.627380
 20
40.457926
 30
0.0
 10
42.718211
 20
40.627689
 30
0.0
 10
42.825681
 20
40.787072
 30
0.0
 10
42.949830
 20
40.936105
 30
0.0
 10
43.087450
 20
41.070997
 30
0.0
 10
43.235292
 20
41.187929
 30
0.0
 10
43.393331
 20
41.286894
 30
0.0
 10
43.561541
 20
41.367883
 30
0.0
 10
43.739897
 20
41.430888
 30
0.0
 10
43.928374
 20
41.475901
 30
0.0
 10
44.126945
 20
41.502915
 30
0.0
 10
44.335589
 20
41.511919
 30
0.0
  0
LWPOLYLINE
  5
108
100
AcDbEntity
  8
logos
 62
7
100
AcDbPolyline
 90
169
 70
1
 10
54.237427
 20
42.969521
 30
0.0
 10
54.220832
 20
42.969097
 30
0.0
 10
54.204265
 20
42.968589
 30
0.0
 10
54.187755
 20
42.967968
 30
0.0
 10
54.171274
 20
42.967263
 30
0.0
 10
54.154848
 20
42.966444
 30
0.0
 10
54.138451
 20
42.965485
 30
0.0
 10
54.122082
 20
42.964412
 30
0.0
 10
54.105742
 20
42.963199
 30
0.0
 10
54.073221
 20
42.960433
 30
0.0
 10
54.040975
 20
42.957227
 30
0.0
 10
54.008976
 20
42.953578
 30
0.0
 10
53.977198
 20
42.949477
 30
0.0
 10
53.945609
 20
42.944914
 30
0.0
 10
53.914186
 20
42.939876
 30
0.0
 10
53.882899
 20
42.934356
 30
0.0
 10
53.851719
 20
42.928344
 30
0.0
 10
53.850026
 20
42.928006
 30
0.0
 10
53.848332
 20
42.927611
 30
0.0
 10
53.846639
 20
42.927187
 30
0.0
 10
53.844946
 20
42.926736
 30
0.0
 10
53.843252
 20
42.926284
 30
0.0
 10
53.841559
 20
42.925861
 30
0.0
 10
53.839866
 20
42.925466
 30
0.0
 10
53.838172
 20
42.925127
 30
0.0
 10
53.824287
 20
42.922220
 30
0.0
 10
53.810458
 20
42.919277
 30
0.0
 10
53.796658
 20
42.916277
 30
0.0
 10
53.782913
 20
42.913200
 30
0.0
 10
53.769226
 20
42.910031
 30
0.0
 10
53.755594
 20
42.906749
 30
0.0
 10
53.741991
 20
42.903334
 30
0.0
 10
53.728444
 20
42.899769
 30
0.0
 10
53.333040
 20
42.778320
 30
0.0
 10
52.951814
 20
42.598308
 30
0.0
 10
52.596694
 20
42.360749
 30
0.0
 10
52.279620
 20
42.066661
 30
0.0
 10
52.012519
 20
41.717056
 30
0.0
 10
51.807327
 20
41.312952
 30
0.0
 10
51.675978
 20
40.855363
 30
0.0
 10
51.630402
 20
40.345306
 30
0.0
 10
51.630119
 20
39.825540
 30
0.0
 10
51.629837
 20
39.305773
 30
0.0
 10
51.629555
 20
38.786006
 30
0.0
 10
51.629273
 20
38.266239
 30
0.0
 10
51.628991
 20
37.746473
 30
0.0
 10
51.628708
 20
37.226706
 30
0.0
 10
51.628426
 20
36.706939
 30
0.0
 10
51.628144
 20
36.187172
 30
0.0
 10
51.813956
 20
36.187172
 30
0.0
 10
51.999768
 20
36.187172
 30
0.0
 10
52.185584
 20
36.187172
 30
0.0
 10
52.371396
 20
36.187172
 30
0.0
 10
52.557208
 20
36.187172
 30
0.0
 10
52.743020
 20
36.187172
 30
0.0
 10
52.928836
 20
36.187172
 30
0.0
 10
53.114648
 20
36.187172
 30
0.0
 10
53.114648
 20
36.609087
 30
0.0
 10
53.114648
 20
37.031001
 30
0.0
 10
53.114648
 20
37.452915
 30
0.0
 10
53.114648
 20
37.874829
 30
0.0
 10
53.114648
 20
38.296744
 30
0.0
 10
53.114648
 20
38.718658
 30
0.0
 10
53.114648
 20
39.140572
 30
0.0
 10
53.114648
 20
39.562486
 30
0.0
 10
53.133331
 20
39.994156
 30
0.0
 10
53.189355
 20
40.368790
 30
0.0
 10
53.282720
 20
40.686403
 30
0.0
 10
53.413422
 20
40.947012
 30
0.0
 10
53.581457
 20
41.150631
 30
0.0
 10
53.786819
 20
41.297275
 30
0.0
 10
54.029505
 20
41.386960
 30
0.0
 10
54.309506
 20
41.419701
 30
0.0
 10
54.589507
 20
41.386960
 30
0.0
 10
54.832193
 20
41.297275
 30
0.0
 10
55.037555
 20
41.150630
 30
0.0
 10
55.205587
 20
40.947011
 30
0.0
 10
55.336290
 20
40.686403
 30
0.0
 10
55.429655
 20
40.368789
 30
0.0
 10
55.485679
 20
39.994156
 30
0.0
 10
55.504362
 20
39.562486
 30
0.0
 10
55.504362
 20
39.140572
 30
0.0
 10
55.504362
 20
38.718658
 30
0.0
 10
55.504362
 20
38.296744
 30
0.0
 10
55.504362
 20
37.874829
 30
0.0
 10
55.504362
 20
37.452915
 30
0.0
 10
55.504362
 20
37.031001
 30
0.0
 10
55.504362
 20
36.609087
 30
0.0
 10
55.504362
 20
36.187172
 30
0.0
 10
55.690566
 20
36.187172
 30
0.0
 10
55.876774
 20
36.187172
 30
0.0
 10
56.062978
 20
36.187172
 30
0.0
 10
56.249183
 20
36.187172
 30
0.0
 10
56.435387
 20
36.187172
 30
0.0
 10
56.621592
 20
36.187172
 30
0.0
 10
56.807799
 20
36.187172
 30
0.0
 10
56.994004
 20
36.187172
 30
0.0
 10
56.993722
 20
36.706939
 30
0.0
 10
56.993439
 20
37.226706
 30
0.0
 10
56.993157
 20
37.746473
 30
0.0
 10
56.992875
 20
38.266239
 30
0.0
 10
56.992593
 20
38.786006
 30
0.0
 10
56.992311
 20
39.305773
 30
0.0
 10
56.992028
 20
39.825540
 30
0.0
 10
56.991746
 20
40.345306
 30
0.0
 10
56.946136
 20
40.855021
 30
0.0
 10
56.814705
 20
41.312386
 30
0.0
 10
56.609408
 20
41.716375
 30
0.0
 10
56.342215
 20
42.065963
 30
0.0
 10
56.025084
 20
42.360122
 30
0.0
 10
55.669981
 20
42.597827
 30
0.0
 10
55.288865
 20
42.778052
 30
0.0
 10
54.893703
 20
42.899769
 30
0.0
 10
54.878238
 20
42.903438
 30
0.0
 10
54.862941
 20
42.907200
 30
0.0
 10
54.847729
 20
42.910996
 30
0.0
 10
54.832574
 20
42.914764
 30
0.0
 10
54.817419
 20
42.918438
 30
0.0
 10
54.802207
 20
42.921960
 30
0.0
 10
54.786882
 20
42.925265
 30
0.0
 10
54.771416
 20
42.928294
 30
0.0
 10
54.740104
 20
42.934305
 30
0.0
 10
54.708461
 20
42.939825
 30
0.0
 10
54.676533
 20
42.944863
 30
0.0
 10
54.644371
 20
42.949426
 30
0.0
 10
54.612015
 20
42.953527
 30
0.0
 10
54.579514
 20
42.957176
 30
0.0
 10
54.546911
 20
42.960382
 30
0.0
 10
54.514256
 20
42.963148
 30
0.0
 10
54.513409
 20
42.963198
 30
0.0
 10
54.512562
 20
42.963205
 30
0.0
 10
54.511716
 20
42.963184
 30
0.0
 10
54.510869
 20
42.963148
 30
0.0
 10
54.510022
 20
42.963112
 30
0.0
 10
54.509176
 20
42.963091
 30
0.0
 10
54.508329
 20
42.963098
 30
0.0
 10
54.507482
 20
42.963148
 30
0.0
 10
54.491678
 20
42.964390
 30
0.0
 10
54.475958
 20
42.965434
 30
0.0
 10
54.460266
 20
42.966337
 30
0.0
 10
54.444631
 20
42.967099
 30
0.0
 10
54.428996
 20
42.967776
 30
0.0
 10
54.413361
 20
42.968369
 30
0.0
 10
54.397726
 20
42.968934
 30
0.0
 10
54.382063
 20
42.969498
 30
0.0
 10
54.380934
 20
42.969516
 30
0.0
 10
54.379805
 20
42.969519
 30
0.0
 10
54.378676
 20
42.969513
 30
0.0
 10
54.377547
 20
42.969503
 30
0.0
 10
54.376418
 20
42.969491
 30
0.0
 10
54.375289
 20
42.969484
 30
0.0
 10
54.374160
 20
42.969484
 30
0.0
 10
54.373032
 20
42.969498
 30
0.0
 10
54.356155
 20
42.969950
 30
0.0
 10
54.339250
 20
42.970232
 30
0.0
 10
54.322316
 20
42.970368
 30
0.0
 10
54.305383
 20
42.970375
 30
0.0
 10
54.288478
 20
42.970272
 30
0.0
 10
54.271629
 20
42.970077
 30
0.0
 10
54.254865
 20
42.969809
 30
0.0
 10
54.238186
 20
42.969499
 30
0.0
 10
54.238186
 20
42.969499
 30
0.0
 10
54.238183
 20
42.969499
 30
0.0
 10
54.238183
 20
42.969499
 30
0.0
 10
54.238180
 20
42.969499
 30
0.0
 10
54.238180
 20
42.969499
 30
0.0
 10
54.238180
 20
42.969499
 30
0.0
 10
54.238177
 20
42.969499
 30
0.0
 10
54.237427
 20
42.969521
 30
0.0
  0
LWPOLYLINE
  5
109
100
AcDbEntity
  8
logos
 62
7
100
AcDbPolyline
 90
49
 70
0
 10
33.913735
 20
40.344412
 30
0.0
 10
34.001716
 20
41.034208
 30
0.0
 10
34.247916
 20
41.623741
 30
0.0
 10
34.620265
 20
42.110222
 30
0.0
 10
35.086693
 20
42.490864
 30
0.0
 10
35.615129
 20
42.762877
 30
0.0
 10
36.173504
 20
42.923472
 30
0.0
 10
36.729747
 20
42.969862
 30
0.0
 10
37.251788
 20
42.899259
 30
0.0
 10
37.251268
 20
42.710061
 30
0.0
 10
37.250748
 20
42.520864
 30
0.0
 10
37.250228
 20
42.331667
 30
0.0
 10
37.249708
 20
42.142470
 30
0.0
 10
37.249189
 20
41.953272
 30
0.0
 10
37.248669
 20
41.764075
 30
0.0
 10
37.248149
 20
41.574878
 30
0.0
 10
37.247629
 20
41.385681
 30
0.0
 10
37.234480
 20
41.394938
 30
0.0
 10
37.197470
 20
41.402421
 30
0.0
 10
37.140253
 20
41.408296
 30
0.0
 10
37.066485
 20
41.412730
 30
0.0
 10
36.979819
 20
41.415889
 30
0.0
 10
36.883910
 20
41.417940
 30
0.0
 10
36.782415
 20
41.419048
 30
0.0
 10
36.678986
 20
41.419380
 30
0.0
 10
36.387045
 20
41.390360
 30
0.0
 10
36.134049
 20
41.303297
 30
0.0
 10
35.919992
 20
41.158187
 30
0.0
 10
35.744869
 20
40.955026
 30
0.0
 10
35.608672
 20
40.693810
 30
0.0
 10
35.511397
 20
40.374535
 30
0.0
 10
35.453036
 20
39.997197
 30
0.0
 10
35.433583
 20
39.561792
 30
0.0
 10
35.433583
 20
39.139969
 30
0.0
 10
35.433583
 20
38.718145
 30
0.0
 10
35.433583
 20
38.296322
 30
0.0
 10
35.433583
 20
37.874498
 30
0.0
 10
35.433583
 20
37.452675
 30
0.0
 10
35.433583
 20
37.030851
 30
0.0
 10
35.433583
 20
36.609028
 30
0.0
 10
35.433583
 20
36.187204
 30
0.0
 10
35.243234
 20
36.187204
 30
0.0
 10
35.052885
 20
36.187204
 30
0.0
 10
34.862536
 20
36.187204
 30
0.0
 10
34.672187
 20
36.187204
 30
0.0
 10
34.481837
 20
36.187204
 30
0.0
 10
34.291488
 20
36.187204
 30
0.0
 10
34.101139
 20
36.187204
 30
0.0
 10
33.910790
 20
36.187204
 30
0.0
  0
ENDSEC
  0
SECTION
  2
OBJECTS
  0
DICTIONARY
  5
C
330
0
100
AcDbDictionary
  3
ACAD_GROUP
350
D
  3
ACAD_MLINESTYLE
350
17
  0
DICTIONARY
  5
D
330
C
100
AcDbDictionary
  0
DICTIONARY
  5
1A
330
C
100
AcDbDictionary
  0
DICTIONARY
  5
17
330
C
100
AcDbDictionary
  3
STANDARD
350
18
  0
DICTIONARY
  5
19
330
C
100
AcDbDictionary
  0
ENDSEC
  0
EOF
