  0
SECTION
  2
HEADER
  9
$ACADVER
  1
AC1014
  9
$HANDSEED
  5
FFFF
  9
$MEASUREMENT
 70
     1
  0
ENDSEC
  0
SECTION
  2
TABLES
  0
TABLE
  2
VPORT
  5
8
330
0
100
AcDbSymbolTable
 70
     4
  0
VPORT
  5
2E
330
8
100
AcDbSymbolTableRecord
100
AcDbViewportTableRecord
  2
*ACTIVE
 70
     0
 10
0.0
 20
0.0
 11
1.0
 21
1.0
 12
210.0
 22
148.5
 13
0.0
 23
0.0
 14
10.0
 24
10.0
 15
10.0
 25
10.0
 16
0.0
 26
0.0
 36
1.0
 17
0.0
 27
0.0
 37
0.0
 40
341.0
 41
1.24
 42
50.0
 43
0.0
 44
0.0
 50
0.0
 51
0.0
 71
     0
 72
   100
 73
     1
 74
     3
 75
     0
 76
     0
 77
     0
 78
     0
  0
ENDTAB
  0
TABLE
  2
LTYPE
  5
5
330
0
100
AcDbSymbolTable
 70
     1
  0
LTYPE
  5
14
330
5
100
AcDbSymbolTableRecord
100
AcDbLinetypeTableRecord
  2
BYBLOCK
 70
     0
  3

 72
    65
 73
     0
 40
0.0
  0
LTYPE
  5
15
330
5
100
AcDbSymbolTableRecord
100
AcDbLinetypeTableRecord
  2
BYLAYER
 70
     0
  3

 72
    65
 73
     0
 40
0.0
  0
LTYPE
  5
16
330
5
100
AcDbSymbolTableRecord
100
AcDbLinetypeTableRecord
  2
CONTINUOUS
 70
     0
  3
Solid line
 72
    65
 73
     0
 40
0.0
  0
ENDTAB
  0
TABLE
  2
LAYER
  5
2
100
AcDbSymbolTable
 70
3
  0
LAYER
  5
50
100
AcDbSymbolTableRecord
100
AcDbLayerTableRecord
  2
0
 70
0
  6
CONTINUOUS
  0
LAYER
  5
51
100
AcDbSymbolTableRecord
100
AcDbLayerTableRecord
  2
Artwork
 70
0
  6
CONTINUOUS
  0
LAYER
  5
52
100
AcDbSymbolTableRecord
100
AcDbLayerTableRecord
  2
logos
 70
0
  6
CONTINUOUS
  0
ENDTAB
  0
TABLE
  2
STYLE
  5
3
330
0
100
AcDbSymbolTable
 70
     1
  0
STYLE
  5
11
330
3
100
AcDbSymbolTableRecord
100
AcDbTextStyleTableRecord
  2
STANDARD
 70
     0
 40
0.0
 41
1.0
 50
0.0
 71
     0
 42
2.5
  3
txt
  4

  0
ENDTAB
  0
TABLE
  2
VIEW
  5
6
330
0
100
AcDbSymbolTable
 70
     0
  0
ENDTAB
  0
TABLE
  2
UCS
  5
7
330
0
100
AcDbSymbolTable
 70
     0
  0
ENDTAB
  0
TABLE
  2
APPID
  5
9
330
0
100
AcDbSymbolTable
 70
     2
  0
APPID
  5
12
330
9
100
AcDbSymbolTableRecord
100
AcDbRegAppTableRecord
  2
ACAD
 70
     0
  0
ENDTAB
  0
TABLE
  2
DIMSTYLE
  5
A
330
0
100
AcDbSymbolTable
 70
     1
  0
DIMSTYLE
105
27
330
A
100
AcDbSymbolTableRecord
100
AcDbDimStyleTableRecord
  2
ISO-25
 70
     0
  3

  4

  5

  6

  7

 40
1.0
 41
2.5
 42
0.625
 43
3.75
 44
1.25
 45
0.0
 46
0.0
 47
0.0
 48
0.0
140
2.5
141
2.5
142
0.0
143
0.03937007874016
144
1.0
145
0.0
146
1.0
147
0.625
 71
     0
 72
     0
 73
     0
 74
     0
 75
     0
 76
     0
 77
     1
 78
     8
170
     0
171
     3
172
     1
173
     0
174
     0
175
     0
176
     0
177
     0
178
     0
270
     2
271
     2
272
     2
273
     2
274
     3
340
11
275
     0
280
     0
281
     0
282
     0
283
     0
284
     8
285
     0
286
     0
287
     3
288
     0
  0
ENDTAB
  0
TABLE
  2
BLOCK_RECORD
  5
1
330
0
100
AcDbSymbolTable
 70
     1
  0
BLOCK_RECORD
  5
1F
330
1
100
AcDbSymbolTableRecord
100
AcDbBlockTableRecord
  2
*MODEL_SPACE
  0
BLOCK_RECORD
  5
1B
330
1
100
AcDbSymbolTableRecord
100
AcDbBlockTableRecord
  2
*PAPER_SPACE
  0
ENDTAB
  0
ENDSEC
  0
SECTION
  2
BLOCKS
  0
BLOCK
  5
20
330
1F
100
AcDbEntity
  8
0
100
AcDbBlockBegin
  2
*MODEL_SPACE
 70
     0
 10
0.0
 20
0.0
 30
0.0
  3
*MODEL_SPACE
  1

  0
ENDBLK
  5
21
330
1F
100
AcDbEntity
  8
0
100
AcDbBlockEnd
  0
BLOCK
  5
1C
330
1B
100
AcDbEntity
 67
     1
  8
0
100
AcDbBlockBegin
  2
*PAPER_SPACE
  1

  0
ENDBLK
  5
1D
330
1B
100
AcDbEntity
 67
     1
  8
0
100
AcDbBlockEnd
  0
ENDSEC
  0
SECTION
  2
ENTITIES
  0
LWPOLYLINE
  5
100
100
AcDbEntity
  8
logos
 62
7
100
AcDbPolyline
 90
97
 70
1
 10
31.221475
 20
27.537123
 30
0.0
 10
31.142459
 20
27.537123
 30
0.0
 10
31.063442
 20
27.537123
 30
0.0
 10
30.984425
 20
27.537123
 30
0.0
 10
30.905409
 20
27.537123
 30
0.0
 10
30.826392
 20
27.537123
 30
0.0
 10
30.747375
 20
27.537123
 30
0.0
 10
30.668358
 20
27.537123
 30
0.0
 10
30.589342
 20
27.537123
 30
0.0
 10
30.537191
 20
27.955122
 30
0.0
 10
30.485040
 20
28.373120
 30
0.0
 10
30.432889
 20
28.791118
 30
0.0
 10
30.380738
 20
29.209117
 30
0.0
 10
30.328587
 20
29.627115
 30
0.0
 10
30.276436
 20
30.045113
 30
0.0
 10
30.224285
 20
30.463111
 30
0.0
 10
30.172134
 20
30.881110
 30
0.0
 10
30.022002
 20
30.594279
 30
0.0
 10
29.871870
 20
30.307448
 30
0.0
 10
29.721739
 20
30.020618
 30
0.0
 10
29.571607
 20
29.733787
 30
0.0
 10
29.421475
 20
29.446957
 30
0.0
 10
29.271344
 20
29.160126
 30
0.0
 10
29.121212
 20
28.873296
 30
0.0
 10
28.971080
 20
28.586465
 30
0.0
 10
28.817788
 20
28.873296
 30
0.0
 10
28.664495
 20
29.160126
 30
0.0
 10
28.511203
 20
29.446957
 30
0.0
 10
28.357911
 20
29.733787
 30
0.0
 10
28.204619
 20
30.020618
 30
0.0
 10
28.051326
 20
30.307448
 30
0.0
 10
27.898034
 20
30.594279
 30
0.0
 10
27.744741
 20
30.881110
 30
0.0
 10
27.692590
 20
30.463111
 30
0.0
 10
27.640439
 20
30.045113
 30
0.0
 10
27.588288
 20
29.627115
 30
0.0
 10
27.536137
 20
29.209117
 30
0.0
 10
27.483986
 20
28.791118
 30
0.0
 10
27.431835
 20
28.373120
 30
0.0
 10
27.379684
 20
27.955122
 30
0.0
 10
27.327533
 20
27.537123
 30
0.0
 10
27.248517
 20
27.537123
 30
0.0
 10
27.169500
 20
27.537123
 30
0.0
 10
27.090483
 20
27.537123
 30
0.0
 10
27.011467
 20
27.537123
 30
0.0
 10
26.932450
 20
27.537123
 30
0.0
 10
26.853433
 20
27.537123
 30
0.0
 10
26.774417
 20
27.537123
 30
0.0
 10
26.695400
 20
27.537123
 30
0.0
 10
26.769676
 20
28.090240
 30
0.0
 10
26.843951
 20
28.643357
 30
0.0
 10
26.918227
 20
29.196474
 30
0.0
 10
26.992503
 20
29.749590
 30
0.0
 10
27.066778
 20
30.302707
 30
0.0
 10
27.141054
 20
30.855824
 30
0.0
 10
27.215330
 20
31.408941
 30
0.0
 10
27.289605
 20
31.962057
 30
0.0
 10
27.353609
 20
31.962057
 30
0.0
 10
27.417612
 20
31.962057
 30
0.0
 10
27.481616
 20
31.962057
 30
0.0
 10
27.545619
 20
31.962057
 30
0.0
 10
27.609623
 20
31.962057
 30
0.0
 10
27.673627
 20
31.962057
 30
0.0
 10
27.737630
 20
31.962057
 30
0.0
 10
27.801634
 20
31.962057
 30
0.0
 10
27.947024
 20
31.687870
 30
0.0
 10
28.092415
 20
31.413682
 30
0.0
 10
28.237806
 20
31.139494
 30
0.0
 10
28.383196
 20
30.865307
 30
0.0
 10
28.528587
 20
30.591119
 30
0.0
 10
28.673978
 20
30.316931
 30
0.0
 10
28.819368
 20
30.042743
 30
0.0
 10
28.964759
 20
29.768556
 30
0.0
 10
29.108569
 20
30.042743
 30
0.0
 10
29.252380
 20
30.316931
 30
0.0
 10
29.396190
 20
30.591119
 30
0.0
 10
29.540000
 20
30.865307
 30
0.0
 10
29.683811
 20
31.139494
 30
0.0
 10
29.827621
 20
31.413682
 30
0.0
 10
29.971432
 20
31.687870
 30
0.0
 10
30.115242
 20
31.962057
 30
0.0
 10
30.180036
 20
31.962057
 30
0.0
 10
30.244829
 20
31.962057
 30
0.0
 10
30.309623
 20
31.962057
 30
0.0
 10
30.374417
 20
31.962057
 30
0.0
 10
30.439210
 20
31.962057
 30
0.0
 10
30.504004
 20
31.962057
 30
0.0
 10
30.568798
 20
31.962057
 30
0.0
 10
30.633591
 20
31.962057
 30
0.0
 10
30.707077
 20
31.408941
 30
0.0
 10
30.780562
 20
30.855824
 30
0.0
 10
30.854048
 20
30.302707
 30
0.0
 10
30.927533
 20
29.749590
 30
0.0
 10
31.001019
 20
29.196474
 30
0.0
 10
31.074504
 20
28.643357
 30
0.0
 10
31.147990
 20
28.090240
 30
0.0
 10
31.221475
 20
27.537123
 30
0.0
  0
LWPOLYLINE
  5
101
100
AcDbEntity
  8
logos
 62
7
100
AcDbPolyline
 90
177
 70
1
 10
34.325760
 20
27.929045
 30
0.0
 10
34.314697
 20
27.872154
 30
0.0
 10
34.303634
 20
27.815262
 30
0.0
 10
34.292570
 20
27.758370
 30
0.0
 10
34.281507
 20
27.701478
 30
0.0
 10
34.270444
 20
27.644587
 30
0.0
 10
34.259381
 20
27.587695
 30
0.0
 10
34.248318
 20
27.530803
 30
0.0
 10
34.237255
 20
27.473911
 30
0.0
 10
34.231723
 20
27.473911
 30
0.0
 10
34.226192
 20
27.473911
 30
0.0
 10
34.220660
 20
27.473911
 30
0.0
 10
34.215129
 20
27.473911
 30
0.0
 10
34.209597
 20
27.473911
 30
0.0
 10
34.204066
 20
27.473911
 30
0.0
 10
34.198534
 20
27.473911
 30
0.0
 10
34.193002
 20
27.473911
 30
0.0
 10
34.101639
 20
27.475492
 30
0.0
 10
34.017189
 20
27.480233
 30
0.0
 10
33.939654
 20
27.488135
 30
0.0
 10
33.869034
 20
27.499198
 30
0.0
 10
33.805325
 20
27.513422
 30
0.0
 10
33.748534
 20
27.530805
 30
0.0
 10
33.698654
 20
27.551347
 30
0.0
 10
33.655688
 20
27.575051
 30
0.0
 10
33.618452
 20
27.604090
 30
0.0
 10
33.582598
 20
27.637474
 30
0.0
 10
33.548128
 20
27.675204
 30
0.0
 10
33.515040
 20
27.717281
 30
0.0
 10
33.483335
 20
27.763703
 30
0.0
 10
33.453010
 20
27.814471
 30
0.0
 10
33.424071
 20
27.869585
 30
0.0
 10
33.396526
 20
27.929045
 30
0.0
 10
33.295976
 20
27.822373
 30
0.0
 10
33.190292
 20
27.729924
 30
0.0
 10
33.079469
 20
27.651698
 30
0.0
 10
32.963513
 20
27.587695
 30
0.0
 10
32.842420
 20
27.537915
 30
0.0
 10
32.716190
 20
27.502357
 30
0.0
 10
32.584827
 20
27.481024
 30
0.0
 10
32.448324
 20
27.473912
 30
0.0
 10
32.343431
 20
27.477863
 30
0.0
 10
32.243671
 20
27.489716
 30
0.0
 10
32.149050
 20
27.509469
 30
0.0
 10
32.059563
 20
27.537124
 30
0.0
 10
31.975213
 20
27.572682
 30
0.0
 10
31.895999
 20
27.616140
 30
0.0
 10
31.821918
 20
27.667501
 30
0.0
 10
31.752977
 20
27.726763
 30
0.0
 10
31.692234
 20
27.792149
 30
0.0
 10
31.639588
 20
27.861881
 30
0.0
 10
31.595043
 20
27.935960
 30
0.0
 10
31.558596
 20
28.014384
 30
0.0
 10
31.530250
 20
28.097154
 30
0.0
 10
31.510015
 20
28.184269
 30
0.0
 10
31.497851
 20
28.275731
 30
0.0
 10
31.493804
 20
28.371539
 30
0.0
 10
31.496457
 20
28.447692
 30
0.0
 10
31.504472
 20
28.521276
 30
0.0
 10
31.517793
 20
28.592293
 30
0.0
 10
31.536476
 20
28.660741
 30
0.0
 10
31.560465
 20
28.726621
 30
0.0
 10
31.589802
 20
28.789934
 30
0.0
 10
31.624470
 20
28.850677
 30
0.0
 10
31.664472
 20
28.908853
 30
0.0
 10
31.710401
 20
28.963967
 30
0.0
 10
31.759685
 20
29.015525
 30
0.0
 10
31.812331
 20
29.063528
 30
0.0
 10
31.868335
 20
29.107975
 30
0.0
 10
31.927695
 20
29.148867
 30
0.0
 10
31.990413
 20
29.186202
 30
0.0
 10
32.056493
 20
29.219982
 30
0.0
 10
32.125928
 20
29.250207
 30
0.0
 10
32.198721
 20
29.277664
 30
0.0
 10
32.271713
 20
29.303146
 30
0.0
 10
32.344904
 20
29.326652
 30
0.0
 10
32.418290
 20
29.348186
 30
0.0
 10
32.491874
 20
29.367741
 30
0.0
 10
32.565656
 20
29.385323
 30
0.0
 10
32.639634
 20
29.400930
 30
0.0
 10
32.713811
 20
29.414562
 30
0.0
 10
32.790062
 20
29.427995
 30
0.0
 10
32.867103
 20
29.439849
 30
0.0
 10
32.944937
 20
29.450122
 30
0.0
 10
33.023558
 20
29.458814
 30
0.0
 10
33.102970
 20
29.465926
 30
0.0
 10
33.183172
 20
29.471458
 30
0.0
 10
33.264164
 20
29.475409
 30
0.0
 10
33.345946
 20
29.477779
 30
0.0
 10
33.343406
 20
29.577834
 30
0.0
 10
33.335702
 20
29.669394
 30
0.0
 10
33.322861
 20
29.752460
 30
0.0
 10
33.304883
 20
29.827032
 30
0.0
 10
33.281769
 20
29.893110
 30
0.0
 10
33.253519
 20
29.950694
 30
0.0
 10
33.220135
 20
29.999783
 30
0.0
 10
33.181614
 20
30.040378
 30
0.0
 10
33.139044
 20
30.075936
 30
0.0
 10
33.090349
 20
30.106752
 30
0.0
 10
33.035533
 20
30.132826
 30
0.0
 10
32.974590
 20
30.154159
 30
0.0
 10
32.907525
 20
30.170754
 30
0.0
 10
32.834337
 20
30.182607
 30
0.0
 10
32.755024
 20
30.189719
 30
0.0
 10
32.669587
 20
30.192090
 30
0.0
 10
32.566965
 20
30.187744
 30
0.0
 10
32.464538
 20
30.174705
 30
0.0
 10
32.362312
 20
30.152977
 30
0.0
 10
32.260280
 20
30.122555
 30
0.0
 10
32.158448
 20
30.083442
 30
0.0
 10
32.056812
 20
30.035637
 30
0.0
 10
31.955375
 20
29.979140
 30
0.0
 10
31.854134
 20
29.913952
 30
0.0
 10
31.843861
 20
29.971634
 30
0.0
 10
31.833588
 20
30.029316
 30
0.0
 10
31.823315
 20
30.086999
 30
0.0
 10
31.813042
 20
30.144681
 30
0.0
 10
31.802769
 20
30.202363
 30
0.0
 10
31.792496
 20
30.260046
 30
0.0
 10
31.782224
 20
30.317728
 30
0.0
 10
31.771951
 20
30.375410
 30
0.0
 10
31.879610
 20
30.450970
 30
0.0
 10
31.993986
 20
30.516455
 30
0.0
 10
32.115079
 20
30.571866
 30
0.0
 10
32.242889
 20
30.617201
 30
0.0
 10
32.377416
 20
30.652463
 30
0.0
 10
32.518657
 20
30.677648
 30
0.0
 10
32.666618
 20
30.692761
 30
0.0
 10
32.821292
 20
30.697799
 30
0.0
 10
32.964410
 20
30.692662
 30
0.0
 10
33.096665
 20
30.677253
 30
0.0
 10
33.218055
 20
30.651574
 30
0.0
 10
33.328578
 20
30.615621
 30
0.0
 10
33.428240
 20
30.569396
 30
0.0
 10
33.517035
 20
30.512899
 30
0.0
 10
33.594965
 20
30.446130
 30
0.0
 10
33.662030
 20
30.369089
 30
0.0
 10
33.721293
 20
30.279108
 30
0.0
 10
33.772652
 20
30.173522
 30
0.0
 10
33.816112
 20
30.052330
 30
0.0
 10
33.851672
 20
29.915533
 30
0.0
 10
33.879329
 20
29.763130
 30
0.0
 10
33.899085
 20
29.595120
 30
0.0
 10
33.910938
 20
29.411506
 30
0.0
 10
33.914889
 20
29.212285
 30
0.0
 10
33.914889
 20
29.133268
 30
0.0
 10
33.914889
 20
29.054251
 30
0.0
 10
33.914889
 20
28.975234
 30
0.0
 10
33.914889
 20
28.896217
 30
0.0
 10
33.914889
 20
28.817201
 30
0.0
 10
33.914889
 20
28.738183
 30
0.0
 10
33.914889
 20
28.659167
 30
0.0
 10
33.914889
 20
28.580150
 30
0.0
 10
33.916018
 20
28.491947
 30
0.0
 10
33.918982
 20
28.410659
 30
0.0
 10
33.923921
 20
28.336284
 30
0.0
 10
33.930835
 20
28.268824
 30
0.0
 10
33.939725
 20
28.208278
 30
0.0
 10
33.950591
 20
28.154645
 30
0.0
 10
33.963432
 20
28.107927
 30
0.0
 10
33.978248
 20
28.068122
 30
0.0
 10
33.996621
 20
28.035528
 30
0.0
 10
34.020130
 20
28.007279
 30
0.0
 10
34.048776
 20
27.983375
 30
0.0
 10
34.082555
 20
27.963817
 30
0.0
 10
34.121470
 20
27.948605
 30
0.0
 10
34.165523
 20
27.937739
 30
0.0
 10
34.214708
 20
27.931220
 30
0.0
 10
34.269033
 20
27.929047
 30
0.0
 10
34.276145
 20
27.929047
 30
0.0
 10
34.283257
 20
27.929047
 30
0.0
 10
34.290369
 20
27.929047
 30
0.0
 10
34.297481
 20
27.929047
 30
0.0
 10
34.304593
 20
27.929047
 30
0.0
 10
34.311705
 20
27.929047
 30
0.0
 10
34.318817
 20
27.929047
 30
0.0
 10
34.325760
 20
27.929045
 30
0.0
  0
LWPOLYLINE
  5
102
100
AcDbEntity
  8
logos
 62
7
100
AcDbPolyline
 90
49
 70
1
 10
33.345955
 20
28.346255
 30
0.0
 10
33.345955
 20
28.438704
 30
0.0
 10
33.345955
 20
28.531154
 30
0.0
 10
33.345955
 20
28.623604
 30
0.0
 10
33.345955
 20
28.716053
 30
0.0
 10
33.345955
 20
28.808503
 30
0.0
 10
33.345955
 20
28.900952
 30
0.0
 10
33.345955
 20
28.993402
 30
0.0
 10
33.345955
 20
29.085852
 30
0.0
 10
33.181304
 20
29.077456
 30
0.0
 10
33.028703
 20
29.064911
 30
0.0
 10
32.888151
 20
29.048217
 30
0.0
 10
32.759649
 20
29.027375
 30
0.0
 10
32.643199
 20
29.002387
 30
0.0
 10
32.538799
 20
28.973250
 30
0.0
 10
32.446448
 20
28.939964
 30
0.0
 10
32.366147
 20
28.902530
 30
0.0
 10
32.297996
 20
28.861540
 30
0.0
 10
32.238930
 20
28.814427
 30
0.0
 10
32.188951
 20
28.761189
 30
0.0
 10
32.148060
 20
28.701828
 30
0.0
 10
32.116256
 20
28.636343
 30
0.0
 10
32.093537
 20
28.564735
 30
0.0
 10
32.079906
 20
28.487002
 30
0.0
 10
32.075362
 20
28.403146
 30
0.0
 10
32.082869
 20
28.292028
 30
0.0
 10
32.105391
 20
28.195726
 30
0.0
 10
32.142923
 20
28.114240
 30
0.0
 10
32.195470
 20
28.047570
 30
0.0
 10
32.263029
 20
27.995715
 30
0.0
 10
32.345601
 20
27.958675
 30
0.0
 10
32.443188
 20
27.936453
 30
0.0
 10
32.555786
 20
27.929045
 30
0.0
 10
32.612383
 20
27.930823
 30
0.0
 10
32.668387
 20
27.936157
 30
0.0
 10
32.723796
 20
27.945047
 30
0.0
 10
32.778615
 20
27.957493
 30
0.0
 10
32.832841
 20
27.973495
 30
0.0
 10
32.886472
 20
27.993053
 30
0.0
 10
32.939512
 20
28.016167
 30
0.0
 10
32.991961
 20
28.042834
 30
0.0
 10
33.044508
 20
28.072465
 30
0.0
 10
33.094681
 20
28.104467
 30
0.0
 10
33.142487
 20
28.138839
 30
0.0
 10
33.187922
 20
28.175581
 30
0.0
 10
33.230986
 20
28.214694
 30
0.0
 10
33.271680
 20
28.256178
 30
0.0
 10
33.310003
 20
28.300032
 30
0.0
 10
33.345955
 20
28.346255
 30
0.0
  0
LWPOLYLINE
  5
103
100
AcDbEntity
  8
logos
 62
7
100
AcDbPolyline
 90
105
 70
1
 10
37.456764
 20
27.537123
 30
0.0
 10
37.385650
 20
27.537123
 30
0.0
 10
37.314535
 20
27.537123
 30
0.0
 10
37.243421
 20
27.537123
 30
0.0
 10
37.172307
 20
27.537123
 30
0.0
 10
37.101190
 20
27.537123
 30
0.0
 10
37.030075
 20
27.537123
 30
0.0
 10
36.958961
 20
27.537123
 30
0.0
 10
36.887847
 20
27.537123
 30
0.0
 10
36.887847
 20
27.750469
 30
0.0
 10
36.887847
 20
27.963814
 30
0.0
 10
36.887847
 20
28.177159
 30
0.0
 10
36.887847
 20
28.390504
 30
0.0
 10
36.887847
 20
28.603849
 30
0.0
 10
36.887847
 20
28.817195
 30
0.0
 10
36.887847
 20
29.030540
 30
0.0
 10
36.887847
 20
29.243885
 30
0.0
 10
36.884883
 20
29.364385
 30
0.0
 10
36.875993
 20
29.476193
 30
0.0
 10
36.861177
 20
29.579310
 30
0.0
 10
36.840433
 20
29.673735
 30
0.0
 10
36.813763
 20
29.759468
 30
0.0
 10
36.781169
 20
29.836509
 30
0.0
 10
36.742649
 20
29.904859
 30
0.0
 10
36.698202
 20
29.964517
 30
0.0
 10
36.648420
 20
30.017853
 30
0.0
 10
36.590737
 20
30.064077
 30
0.0
 10
36.525154
 20
30.103190
 30
0.0
 10
36.451669
 20
30.135192
 30
0.0
 10
36.370282
 20
30.160081
 30
0.0
 10
36.280993
 20
30.177861
 30
0.0
 10
36.183801
 20
30.188529
 30
0.0
 10
36.078710
 20
30.192085
 30
0.0
 10
35.929962
 20
30.185764
 30
0.0
 10
35.793459
 20
30.166798
 30
0.0
 10
35.669205
 20
30.135192
 30
0.0
 10
35.557200
 20
30.090942
 30
0.0
 10
35.457440
 20
30.034050
 30
0.0
 10
35.369928
 20
29.964515
 30
0.0
 10
35.294665
 20
29.882338
 30
0.0
 10
35.231651
 20
29.787518
 30
0.0
 10
35.231651
 20
29.506219
 30
0.0
 10
35.231651
 20
29.224919
 30
0.0
 10
35.231651
 20
28.943620
 30
0.0
 10
35.231651
 20
28.662321
 30
0.0
 10
35.231651
 20
28.381021
 30
0.0
 10
35.231651
 20
28.099722
 30
0.0
 10
35.231651
 20
27.818423
 30
0.0
 10
35.231651
 20
27.537123
 30
0.0
 10
35.160536
 20
27.537123
 30
0.0
 10
35.089422
 20
27.537123
 30
0.0
 10
35.018305
 20
27.537123
 30
0.0
 10
34.947191
 20
27.537123
 30
0.0
 10
34.876076
 20
27.537123
 30
0.0
 10
34.804959
 20
27.537123
 30
0.0
 10
34.733845
 20
27.537123
 30
0.0
 10
34.662730
 20
27.537123
 30
0.0
 10
34.662730
 20
27.924305
 30
0.0
 10
34.662730
 20
28.311487
 30
0.0
 10
34.662730
 20
28.698668
 30
0.0
 10
34.662730
 20
29.085850
 30
0.0
 10
34.662730
 20
29.473032
 30
0.0
 10
34.662730
 20
29.860214
 30
0.0
 10
34.662730
 20
30.247395
 30
0.0
 10
34.662730
 20
30.634577
 30
0.0
 10
34.718043
 20
30.634577
 30
0.0
 10
34.773353
 20
30.634577
 30
0.0
 10
34.828666
 20
30.634577
 30
0.0
 10
34.883978
 20
30.634577
 30
0.0
 10
34.939288
 20
30.634577
 30
0.0
 10
34.994601
 20
30.634577
 30
0.0
 10
35.049911
 20
30.634577
 30
0.0
 10
35.105224
 20
30.634577
 30
0.0
 10
35.113126
 20
30.593488
 30
0.0
 10
35.121028
 20
30.552400
 30
0.0
 10
35.128930
 20
30.511311
 30
0.0
 10
35.136833
 20
30.470222
 30
0.0
 10
35.144735
 20
30.429133
 30
0.0
 10
35.152637
 20
30.388045
 30
0.0
 10
35.160539
 20
30.346956
 30
0.0
 10
35.168442
 20
30.305867
 30
0.0
 10
35.279854
 20
30.397725
 30
0.0
 10
35.396009
 20
30.477334
 30
0.0
 10
35.516904
 20
30.544696
 30
0.0
 10
35.642541
 20
30.599811
 30
0.0
 10
35.772919
 20
30.642678
 30
0.0
 10
35.908036
 20
30.673297
 30
0.0
 10
36.047897
 20
30.691667
 30
0.0
 10
36.192496
 20
30.697791
 30
0.0
 10
36.488810
 20
30.675075
 30
0.0
 10
36.745612
 20
30.606923
 30
0.0
 10
36.962909
 20
30.493336
 30
0.0
 10
37.140695
 20
30.334315
 30
0.0
 10
37.278975
 20
30.129860
 30
0.0
 10
37.377745
 20
29.879969
 30
0.0
 10
37.437009
 20
29.584644
 30
0.0
 10
37.456764
 20
29.243885
 30
0.0
 10
37.456764
 20
29.030540
 30
0.0
 10
37.456764
 20
28.817194
 30
0.0
 10
37.456764
 20
28.603849
 30
0.0
 10
37.456764
 20
28.390504
 30
0.0
 10
37.456764
 20
28.177159
 30
0.0
 10
37.456764
 20
27.963814
 30
0.0
 10
37.456764
 20
27.750469
 30
0.0
 10
37.456764
 20
27.537123
 30
0.0
  0
LWPOLYLINE
  5
104
100
AcDbEntity
  8
logos
 62
7
100
AcDbPolyline
 90
177
 70
1
 10
40.661764
 20
27.929045
 30
0.0
 10
40.650701
 20
27.872154
 30
0.0
 10
40.639638
 20
27.815262
 30
0.0
 10
40.628575
 20
27.758370
 30
0.0
 10
40.617512
 20
27.701478
 30
0.0
 10
40.606449
 20
27.644587
 30
0.0
 10
40.595386
 20
27.587695
 30
0.0
 10
40.584323
 20
27.530803
 30
0.0
 10
40.573260
 20
27.473911
 30
0.0
 10
40.567728
 20
27.473911
 30
0.0
 10
40.562196
 20
27.473911
 30
0.0
 10
40.556665
 20
27.473911
 30
0.0
 10
40.551133
 20
27.473911
 30
0.0
 10
40.545602
 20
27.473911
 30
0.0
 10
40.540070
 20
27.473911
 30
0.0
 10
40.534539
 20
27.473911
 30
0.0
 10
40.529007
 20
27.473911
 30
0.0
 10
40.437643
 20
27.475492
 30
0.0
 10
40.353197
 20
27.480233
 30
0.0
 10
40.275662
 20
27.488135
 30
0.0
 10
40.205039
 20
27.499198
 30
0.0
 10
40.141333
 20
27.513422
 30
0.0
 10
40.084541
 20
27.530805
 30
0.0
 10
40.034661
 20
27.551347
 30
0.0
 10
39.991695
 20
27.575051
 30
0.0
 10
39.954459
 20
27.604090
 30
0.0
 10
39.918606
 20
27.637474
 30
0.0
 10
39.884132
 20
27.675204
 30
0.0
 10
39.851044
 20
27.717281
 30
0.0
 10
39.819340
 20
27.763703
 30
0.0
 10
39.789015
 20
27.814471
 30
0.0
 10
39.760076
 20
27.869585
 30
0.0
 10
39.732531
 20
27.929045
 30
0.0
 10
39.631984
 20
27.822373
 30
0.0
 10
39.526297
 20
27.729924
 30
0.0
 10
39.415477
 20
27.651698
 30
0.0
 10
39.299520
 20
27.587695
 30
0.0
 10
39.178427
 20
27.537915
 30
0.0
 10
39.052197
 20
27.502357
 30
0.0
 10
38.920834
 20
27.481024
 30
0.0
 10
38.784332
 20
27.473912
 30
0.0
 10
38.679436
 20
27.477863
 30
0.0
 10
38.579678
 20
27.489717
 30
0.0
 10
38.485055
 20
27.509469
 30
0.0
 10
38.395568
 20
27.537124
 30
0.0
 10
38.311217
 20
27.572682
 30
0.0
 10
38.232003
 20
27.616141
 30
0.0
 10
38.157926
 20
27.667501
 30
0.0
 10
38.088984
 20
27.726763
 30
0.0
 10
38.028239
 20
27.792149
 30
0.0
 10
37.975596
 20
27.861882
 30
0.0
 10
37.931050
 20
27.935960
 30
0.0
 10
37.894601
 20
28.014384
 30
0.0
 10
37.866255
 20
28.097154
 30
0.0
 10
37.846019
 20
28.184270
 30
0.0
 10
37.833855
 20
28.275731
 30
0.0
 10
37.829820
 20
28.371539
 30
0.0
 10
37.832360
 20
28.447692
 30
0.0
 10
37.840347
 20
28.521277
 30
0.0
 10
37.853667
 20
28.592293
 30
0.0
 10
37.872351
 20
28.660742
 30
0.0
 10
37.896339
 20
28.726622
 30
0.0
 10
37.925676
 20
28.789934
 30
0.0
 10
37.960345
 20
28.850678
 30
0.0
 10
38.000347
 20
28.908854
 30
0.0
 10
38.046276
 20
28.963968
 30
0.0
 10
38.095563
 20
29.015526
 30
0.0
 10
38.148209
 20
29.063529
 30
0.0
 10
38.204210
 20
29.107975
 30
0.0
 10
38.263573
 20
29.148867
 30
0.0
 10
38.326291
 20
29.186202
 30
0.0
 10
38.392370
 20
29.219983
 30
0.0
 10
38.461806
 20
29.250207
 30
0.0
 10
38.534599
 20
29.277664
 30
0.0
 10
38.607590
 20
29.303146
 30
0.0
 10
38.680779
 20
29.326653
 30
0.0
 10
38.754165
 20
29.348186
 30
0.0
 10
38.827749
 20
29.367741
 30
0.0
 10
38.901533
 20
29.385324
 30
0.0
 10
38.975512
 20
29.400931
 30
0.0
 10
39.049689
 20
29.414562
 30
0.0
 10
39.125939
 20
29.427996
 30
0.0
 10
39.202980
 20
29.439849
 30
0.0
 10
39.280812
 20
29.450122
 30
0.0
 10
39.359433
 20
29.458814
 30
0.0
 10
39.438845
 20
29.465926
 30
0.0
 10
39.519047
 20
29.471458
 30
0.0
 10
39.600039
 20
29.475409
 30
0.0
 10
39.681821
 20
29.477780
 30
0.0
 10
39.679281
 20
29.577834
 30
0.0
 10
39.671576
 20
29.669395
 30
0.0
 10
39.658735
 20
29.752461
 30
0.0
 10
39.640758
 20
29.827033
 30
0.0
 10
39.617644
 20
29.893110
 30
0.0
 10
39.589393
 20
29.950694
 30
0.0
 10
39.556009
 20
29.999783
 30
0.0
 10
39.517489
 20
30.040378
 30
0.0
 10
39.474918
 20
30.075936
 30
0.0
 10
39.426224
 20
30.106752
 30
0.0
 10
39.371408
 20
30.132827
 30
0.0
 10
39.310465
 20
30.154160
 30
0.0
 10
39.243400
 20
30.170754
 30
0.0
 10
39.170212
 20
30.182608
 30
0.0
 10
39.090899
 20
30.189720
 30
0.0
 10
39.005461
 20
30.192090
 30
0.0
 10
38.902837
 20
30.187744
 30
0.0
 10
38.800413
 20
30.174705
 30
0.0
 10
38.698186
 20
30.152977
 30
0.0
 10
38.596155
 20
30.122556
 30
0.0
 10
38.494323
 20
30.083442
 30
0.0
 10
38.392686
 20
30.035637
 30
0.0
 10
38.291250
 20
29.979141
 30
0.0
 10
38.190009
 20
29.913952
 30
0.0
 10
38.179736
 20
29.971634
 30
0.0
 10
38.169463
 20
30.029316
 30
0.0
 10
38.159190
 20
30.086999
 30
0.0
 10
38.148917
 20
30.144681
 30
0.0
 10
38.138644
 20
30.202364
 30
0.0
 10
38.128371
 20
30.260046
 30
0.0
 10
38.118098
 20
30.317728
 30
0.0
 10
38.107825
 20
30.375411
 30
0.0
 10
38.215485
 20
30.450970
 30
0.0
 10
38.329864
 20
30.516455
 30
0.0
 10
38.450957
 20
30.571866
 30
0.0
 10
38.578767
 20
30.617202
 30
0.0
 10
38.713291
 20
30.652463
 30
0.0
 10
38.854535
 20
30.677648
 30
0.0
 10
39.002492
 20
30.692761
 30
0.0
 10
39.157167
 20
30.697799
 30
0.0
 10
39.300288
 20
30.692663
 30
0.0
 10
39.432540
 20
30.677253
 30
0.0
 10
39.553929
 20
30.651574
 30
0.0
 10
39.664456
 20
30.615621
 30
0.0
 10
39.764114
 20
30.569396
 30
0.0
 10
39.852910
 20
30.512899
 30
0.0
 10
39.930840
 20
30.446130
 30
0.0
 10
39.997904
 20
30.369089
 30
0.0
 10
40.057168
 20
30.279109
 30
0.0
 10
40.108527
 20
30.173522
 30
0.0
 10
40.151986
 20
30.052331
 30
0.0
 10
40.187546
 20
29.915533
 30
0.0
 10
40.215204
 20
29.763130
 30
0.0
 10
40.234960
 20
29.595121
 30
0.0
 10
40.246813
 20
29.411506
 30
0.0
 10
40.250764
 20
29.212285
 30
0.0
 10
40.250764
 20
29.133269
 30
0.0
 10
40.250764
 20
29.054251
 30
0.0
 10
40.250764
 20
28.975235
 30
0.0
 10
40.250764
 20
28.896218
 30
0.0
 10
40.250764
 20
28.817201
 30
0.0
 10
40.250764
 20
28.738184
 30
0.0
 10
40.250764
 20
28.659167
 30
0.0
 10
40.250764
 20
28.580150
 30
0.0
 10
40.251611
 20
28.491948
 30
0.0
 10
40.254574
 20
28.410659
 30
0.0
 10
40.259513
 20
28.336285
 30
0.0
 10
40.266428
 20
28.268824
 30
0.0
 10
40.275318
 20
28.208278
 30
0.0
 10
40.286183
 20
28.154645
 30
0.0
 10
40.299024
 20
28.107927
 30
0.0
 10
40.313841
 20
28.068123
 30
0.0
 10
40.332214
 20
28.035528
 30
0.0
 10
40.355723
 20
28.007279
 30
0.0
 10
40.384365
 20
27.983375
 30
0.0
 10
40.418145
 20
27.963817
 30
0.0
 10
40.457060
 20
27.948605
 30
0.0
 10
40.501112
 20
27.937740
 30
0.0
 10
40.550298
 20
27.931220
 30
0.0
 10
40.604623
 20
27.929047
 30
0.0
 10
40.611735
 20
27.929047
 30
0.0
 10
40.618847
 20
27.929047
 30
0.0
 10
40.625959
 20
27.929047
 30
0.0
 10
40.633071
 20
27.929047
 30
0.0
 10
40.640183
 20
27.929047
 30
0.0
 10
40.647295
 20
27.929047
 30
0.0
 10
40.654407
 20
27.929047
 30
0.0
 10
40.661764
 20
27.929045
 30
0.0
  0
LWPOLYLINE
  5
105
100
AcDbEntity
  8
logos
 62
7
100
AcDbPolyline
 90
49
 70
1
 10
39.681957
 20
28.346255
 30
0.0
 10
39.681957
 20
28.438704
 30
0.0
 10
39.681957
 20
28.531154
 30
0.0
 10
39.681957
 20
28.623604
 30
0.0
 10
39.681957
 20
28.716053
 30
0.0
 10
39.681957
 20
28.808503
 30
0.0
 10
39.681957
 20
28.900952
 30
0.0
 10
39.681957
 20
28.993402
 30
0.0
 10
39.681957
 20
29.085852
 30
0.0
 10
39.517305
 20
29.077456
 30
0.0
 10
39.364705
 20
29.064911
 30
0.0
 10
39.224153
 20
29.048217
 30
0.0
 10
39.095654
 20
29.027375
 30
0.0
 10
38.979204
 20
29.002387
 30
0.0
 10
38.874801
 20
28.973250
 30
0.0
 10
38.782452
 20
28.939964
 30
0.0
 10
38.702152
 20
28.902530
 30
0.0
 10
38.634001
 20
28.861540
 30
0.0
 10
38.574934
 20
28.814427
 30
0.0
 10
38.524956
 20
28.761189
 30
0.0
 10
38.484064
 20
28.701828
 30
0.0
 10
38.452261
 20
28.636343
 30
0.0
 10
38.429542
 20
28.564735
 30
0.0
 10
38.415911
 20
28.487002
 30
0.0
 10
38.411367
 20
28.403146
 30
0.0
 10
38.418874
 20
28.292028
 30
0.0
 10
38.441395
 20
28.195726
 30
0.0
 10
38.478928
 20
28.114240
 30
0.0
 10
38.531475
 20
28.047570
 30
0.0
 10
38.599033
 20
27.995715
 30
0.0
 10
38.681606
 20
27.958675
 30
0.0
 10
38.779193
 20
27.936453
 30
0.0
 10
38.891791
 20
27.929045
 30
0.0
 10
38.948388
 20
27.930823
 30
0.0
 10
39.004389
 20
27.936157
 30
0.0
 10
39.059801
 20
27.945047
 30
0.0
 10
39.114617
 20
27.957493
 30
0.0
 10
39.168843
 20
27.973495
 30
0.0
 10
39.222476
 20
27.993053
 30
0.0
 10
39.275514
 20
28.016167
 30
0.0
 10
39.327962
 20
28.042834
 30
0.0
 10
39.380509
 20
28.072465
 30
0.0
 10
39.430686
 20
28.104467
 30
0.0
 10
39.478488
 20
28.138839
 30
0.0
 10
39.523923
 20
28.175581
 30
0.0
 10
39.566988
 20
28.214694
 30
0.0
 10
39.607681
 20
28.256178
 30
0.0
 10
39.646004
 20
28.300032
 30
0.0
 10
39.681957
 20
28.346255
 30
0.0
  0
LWPOLYLINE
  5
106
100
AcDbEntity
  8
logos
 62
7
100
AcDbPolyline
 90
233
 70
1
 10
42.253015
 20
25.956789
 30
0.0
 10
42.075523
 20
25.961234
 30
0.0
 10
41.909686
 20
25.974569
 30
0.0
 10
41.755505
 20
25.996791
 30
0.0
 10
41.612980
 20
26.027904
 30
0.0
 10
41.482108
 20
26.067906
 30
0.0
 10
41.362892
 20
26.116798
 30
0.0
 10
41.255331
 20
26.174579
 30
0.0
 10
41.159424
 20
26.241249
 30
0.0
 10
41.076456
 20
26.313648
 30
0.0
 10
41.004552
 20
26.388616
 30
0.0
 10
40.943707
 20
26.466151
 30
0.0
 10
40.893929
 20
26.546254
 30
0.0
 10
40.855211
 20
26.628925
 30
0.0
 10
40.827553
 20
26.714165
 30
0.0
 10
40.810958
 20
26.801972
 30
0.0
 10
40.805427
 20
26.892347
 30
0.0
 10
40.814035
 20
27.012453
 30
0.0
 10
40.839801
 20
27.123076
 30
0.0
 10
40.882767
 20
27.224218
 30
0.0
 10
40.942917
 20
27.315878
 30
0.0
 10
41.020257
 20
27.398055
 30
0.0
 10
41.114779
 20
27.470750
 30
0.0
 10
41.226488
 20
27.533964
 30
0.0
 10
41.355385
 20
27.587695
 30
0.0
 10
41.281307
 20
27.627006
 30
0.0
 10
41.217104
 20
27.669082
 30
0.0
 10
41.162782
 20
27.713924
 30
0.0
 10
41.118335
 20
27.761531
 30
0.0
 10
41.083766
 20
27.811904
 30
0.0
 10
41.059071
 20
27.865043
 30
0.0
 10
41.044255
 20
27.920947
 30
0.0
 10
41.039316
 20
27.979617
 30
0.0
 10
41.040727
 20
28.006778
 30
0.0
 10
41.044565
 20
28.034532
 30
0.0
 10
41.051000
 20
28.062879
 30
0.0
 10
41.059974
 20
28.091819
 30
0.0
 10
41.071517
 20
28.121351
 30
0.0
 10
41.085628
 20
28.151476
 30
0.0
 10
41.102308
 20
28.182194
 30
0.0
 10
41.121583
 20
28.213504
 30
0.0
 10
41.145375
 20
28.246099
 30
0.0
 10
41.172525
 20
28.277508
 30
0.0
 10
41.203044
 20
28.307732
 30
0.0
 10
41.236922
 20
28.336771
 30
0.0
 10
41.274158
 20
28.364624
 30
0.0
 10
41.314753
 20
28.391294
 30
0.0
 10
41.358707
 20
28.416775
 30
0.0
 10
41.406018
 20
28.441075
 30
0.0
 10
41.280085
 20
28.542611
 30
0.0
 10
41.170944
 20
28.651259
 30
0.0
 10
41.078593
 20
28.767018
 30
0.0
 10
41.003033
 20
28.889889
 30
0.0
 10
40.944263
 20
29.019872
 30
0.0
 10
40.902285
 20
29.156966
 30
0.0
 10
40.877111
 20
29.301172
 30
0.0
 10
40.868729
 20
29.452489
 30
0.0
 10
40.873950
 20
29.583952
 30
0.0
 10
40.889642
 20
29.709687
 30
0.0
 10
40.915804
 20
29.829693
 30
0.0
 10
40.952448
 20
29.943971
 30
0.0
 10
40.999562
 20
30.052520
 30
0.0
 10
41.057144
 20
30.155340
 30
0.0
 10
41.125199
 20
30.252431
 30
0.0
 10
41.203721
 20
30.343794
 30
0.0
 10
41.291529
 20
30.426762
 30
0.0
 10
41.387437
 20
30.498668
 30
0.0
 10
41.491441
 20
30.559511
 30
0.0
 10
41.603546
 20
30.609292
 30
0.0
 10
41.723750
 20
30.648010
 30
0.0
 10
41.852054
 20
30.675668
 30
0.0
 10
41.988457
 20
30.692263
 30
0.0
 10
42.132958
 20
30.697794
 30
0.0
 10
42.237950
 20
30.694238
 30
0.0
 10
42.341167
 20
30.683570
 30
0.0
 10
42.442604
 20
30.665790
 30
0.0
 10
42.542262
 20
30.640901
 30
0.0
 10
42.640145
 20
30.608899
 30
0.0
 10
42.736250
 20
30.569786
 30
0.0
 10
42.830574
 20
30.523560
 30
0.0
 10
42.923124
 20
30.470224
 30
0.0
 10
43.008166
 20
30.511708
 30
0.0
 10
43.095776
 20
30.547661
 30
0.0
 10
43.185954
 20
30.578082
 30
0.0
 10
43.278698
 20
30.602972
 30
0.0
 10
43.374013
 20
30.622332
 30
0.0
 10
43.471896
 20
30.636161
 30
0.0
 10
43.572345
 20
30.644458
 30
0.0
 10
43.675364
 20
30.647224
 30
0.0
 10
43.681686
 20
30.647224
 30
0.0
 10
43.688008
 20
30.647224
 30
0.0
 10
43.694330
 20
30.647224
 30
0.0
 10
43.700651
 20
30.647224
 30
0.0
 10
43.706973
 20
30.647224
 30
0.0
 10
43.713295
 20
30.647224
 30
0.0
 10
43.719617
 20
30.647224
 30
0.0
 10
43.725939
 20
30.647224
 30
0.0
 10
43.717246
 20
30.599814
 30
0.0
 10
43.708554
 20
30.552404
 30
0.0
 10
43.699861
 20
30.504994
 30
0.0
 10
43.691169
 20
30.457583
 30
0.0
 10
43.682476
 20
30.410173
 30
0.0
 10
43.673784
 20
30.362763
 30
0.0
 10
43.665091
 20
30.315353
 30
0.0
 10
43.656399
 20
30.267943
 30
0.0
 10
43.638224
 20
30.267943
 30
0.0
 10
43.620049
 20
30.267943
 30
0.0
 10
43.601874
 20
30.267943
 30
0.0
 10
43.583699
 20
30.267943
 30
0.0
 10
43.565523
 20
30.267943
 30
0.0
 10
43.547348
 20
30.267943
 30
0.0
 10
43.529173
 20
30.267943
 30
0.0
 10
43.510998
 20
30.267943
 30
0.0
 10
43.465168
 20
30.267265
 30
0.0
 10
43.419338
 20
30.265205
 30
0.0
 10
43.373508
 20
30.261748
 30
0.0
 10
43.327678
 20
30.256908
 30
0.0
 10
43.281848
 20
30.250685
 30
0.0
 10
43.236021
 20
30.243079
 30
0.0
 10
43.190190
 20
30.234090
 30
0.0
 10
43.144360
 20
30.223718
 30
0.0
 10
43.211030
 20
30.137492
 30
0.0
 10
43.268812
 20
30.049487
 30
0.0
 10
43.317704
 20
29.959705
 30
0.0
 10
43.357706
 20
29.868145
 30
0.0
 10
43.388818
 20
29.774806
 30
0.0
 10
43.411029
 20
29.679690
 30
0.0
 10
43.424350
 20
29.582796
 30
0.0
 10
43.428781
 20
29.484124
 30
0.0
 10
43.423447
 20
29.361352
 30
0.0
 10
43.407445
 20
29.242728
 30
0.0
 10
43.380775
 20
29.128252
 30
0.0
 10
43.343440
 20
29.017925
 30
0.0
 10
43.295437
 20
28.911746
 30
0.0
 10
43.236766
 20
28.809715
 30
0.0
 10
43.167429
 20
28.711833
 30
0.0
 10
43.087425
 20
28.618100
 30
0.0
 10
42.999913
 20
28.532169
 30
0.0
 10
42.904895
 20
28.457696
 30
0.0
 10
42.802372
 20
28.394680
 30
0.0
 10
42.692342
 20
28.343122
 30
0.0
 10
42.574805
 20
28.303020
 30
0.0
 10
42.449761
 20
28.274377
 30
0.0
 10
42.317209
 20
28.257189
 30
0.0
 10
42.177154
 20
28.251460
 30
0.0
 10
42.116310
 20
28.252363
 30
0.0
 10
42.057049
 20
28.255016
 30
0.0
 10
41.999365
 20
28.259461
 30
0.0
 10
41.943265
 20
28.265684
 30
0.0
 10
41.888742
 20
28.273685
 30
0.0
 10
41.835800
 20
28.283464
 30
0.0
 10
41.784442
 20
28.295021
 30
0.0
 10
41.734660
 20
28.308356
 30
0.0
 10
41.699103
 20
28.286033
 30
0.0
 10
41.668285
 20
28.263317
 30
0.0
 10
41.642207
 20
28.240203
 30
0.0
 10
41.620871
 20
28.216696
 30
0.0
 10
41.604277
 20
28.192795
 30
0.0
 10
41.592423
 20
28.168498
 30
0.0
 10
41.585311
 20
28.143807
 30
0.0
 10
41.583053
 20
28.118720
 30
0.0
 10
41.585876
 20
28.091164
 30
0.0
 10
41.594173
 20
28.065386
 30
0.0
 10
41.608002
 20
28.041383
 30
0.0
 10
41.627362
 20
28.019160
 30
0.0
 10
41.652254
 20
27.998713
 30
0.0
 10
41.682678
 20
27.980047
 30
0.0
 10
41.718630
 20
27.963156
 30
0.0
 10
41.760114
 20
27.948046
 30
0.0
 10
41.812463
 20
27.933131
 30
0.0
 10
41.877849
 20
27.916832
 30
0.0
 10
41.956273
 20
27.899151
 30
0.0
 10
42.047735
 20
27.880087
 30
0.0
 10
42.152236
 20
27.859643
 30
0.0
 10
42.269774
 20
27.837816
 30
0.0
 10
42.400349
 20
27.814606
 30
0.0
 10
42.543961
 20
27.790013
 30
0.0
 10
42.589099
 20
27.782111
 30
0.0
 10
42.632855
 20
27.774208
 30
0.0
 10
42.675228
 20
27.766306
 30
0.0
 10
42.716215
 20
27.758404
 30
0.0
 10
42.755825
 20
27.750502
 30
0.0
 10
42.794049
 20
27.742600
 30
0.0
 10
42.830891
 20
27.734697
 30
0.0
 10
42.866349
 20
27.726795
 30
0.0
 10
42.901906
 20
27.718300
 30
0.0
 10
42.939044
 20
27.708620
 30
0.0
 10
42.977762
 20
27.697754
 30
0.0
 10
43.018060
 20
27.685704
 30
0.0
 10
43.059939
 20
27.672467
 30
0.0
 10
43.103396
 20
27.658046
 30
0.0
 10
43.148436
 20
27.642439
 30
0.0
 10
43.195056
 20
27.625650
 30
0.0
 10
43.241380
 20
27.608067
 30
0.0
 10
43.285531
 20
27.590092
 30
0.0
 10
43.327509
 20
27.571723
 30
0.0
 10
43.367313
 20
27.552955
 30
0.0
 10
43.404945
 20
27.533795
 30
0.0
 10
43.440406
 20
27.514239
 30
0.0
 10
43.473691
 20
27.494286
 30
0.0
 10
43.504803
 20
27.473938
 30
0.0
 10
43.535817
 20
27.451025
 30
0.0
 10
43.565645
 20
27.426530
 30
0.0
 10
43.594290
 20
27.400453
 30
0.0
 10
43.621751
 20
27.372798
 30
0.0
 10
43.648025
 20
27.343562
 30
0.0
 10
43.673115
 20
27.312745
 30
0.0
 10
43.697019
 20
27.280348
 30
0.0
 10
43.719738
 20
27.246370
 30
0.0
 10
43.740481
 20
27.209628
 30
0.0
 10
43.758459
 20
27.172095
 30
0.0
 10
43.773671
 20
27.133772
 30
0.0
 10
43.786117
 20
27.094659
 30
0.0
 10
43.795797
 20
27.054755
 30
0.0
 10
43.802711
 20
27.014062
 30
0.0
 10
43.806860
 20
26.972578
 30
0.0
 10
43.808271
 20
26.930304
 30
0.0
 10
43.801752
 20
26.832521
 30
0.0
 10
43.782194
 20
26.738293
 30
0.0
 10
43.749600
 20
26.647622
 30
0.0
 10
43.703968
 20
26.560506
 30
0.0
 10
43.645296
 20
26.476946
 30
0.0
 10
43.573589
 20
26.396941
 30
0.0
 10
43.488844
 20
26.320493
 30
0.0
 10
43.391062
 20
26.247600
 30
0.0
 10
43.283403
 20
26.179448
 30
0.0
 10
43.165866
 20
26.120383
 30
0.0
 10
43.038451
 20
26.070405
 30
0.0
 10
42.901158
 20
26.029513
 30
0.0
 10
42.753991
 20
25.997709
 30
0.0
 10
42.596945
 20
25.974993
 30
0.0
 10
42.430022
 20
25.961362
 30
0.0
 10
42.253015
 20
25.956789
 30
0.0
  0
LWPOLYLINE
  5
107
100
AcDbEntity
  8
logos
 62
7
100
AcDbPolyline
 90
65
 70
1
 10
42.139232
 20
30.242655
 30
0.0
 10
42.054782
 20
30.239297
 30
0.0
 10
41.975272
 20
30.229222
 30
0.0
 10
41.900700
 20
30.212429
 30
0.0
 10
41.831065
 20
30.188920
 30
0.0
 10
41.766371
 20
30.158696
 30
0.0
 10
41.706613
 20
30.121756
 30
0.0
 10
41.651797
 20
30.078099
 30
0.0
 10
41.601917
 20
30.027726
 30
0.0
 10
41.557470
 20
29.973401
 30
0.0
 10
41.518950
 20
29.914731
 30
0.0
 10
41.486356
 20
29.851716
 30
0.0
 10
41.459686
 20
29.784354
 30
0.0
 10
41.438942
 20
29.712646
 30
0.0
 10
41.424126
 20
29.636593
 30
0.0
 10
41.415236
 20
29.556194
 30
0.0
 10
41.412272
 20
29.471449
 30
0.0
 10
41.415433
 20
29.383641
 30
0.0
 10
41.424916
 20
29.300377
 30
0.0
 10
41.440720
 20
29.221657
 30
0.0
 10
41.462847
 20
29.147480
 30
0.0
 10
41.491292
 20
29.077847
 30
0.0
 10
41.526059
 20
29.012757
 30
0.0
 10
41.567147
 20
28.952210
 30
0.0
 10
41.614558
 20
28.896206
 30
0.0
 10
41.668587
 20
28.847315
 30
0.0
 10
41.726366
 20
28.804943
 30
0.0
 10
41.787902
 20
28.769090
 30
0.0
 10
41.853188
 20
28.739755
 30
0.0
 10
41.922228
 20
28.716940
 30
0.0
 10
41.995022
 20
28.700642
 30
0.0
 10
42.071569
 20
28.690863
 30
0.0
 10
42.151870
 20
28.687603
 30
0.0
 10
42.234936
 20
28.691159
 30
0.0
 10
42.313459
 20
28.701827
 30
0.0
 10
42.387438
 20
28.719607
 30
0.0
 10
42.456876
 20
28.744496
 30
0.0
 10
42.521767
 20
28.776498
 30
0.0
 10
42.582117
 20
28.815611
 30
0.0
 10
42.637921
 20
28.861836
 30
0.0
 10
42.689184
 20
28.915172
 30
0.0
 10
42.735113
 20
28.973940
 30
0.0
 10
42.774917
 20
29.036462
 30
0.0
 10
42.808598
 20
29.102737
 30
0.0
 10
42.836143
 20
29.172766
 30
0.0
 10
42.857592
 20
29.246548
 30
0.0
 10
42.872888
 20
29.324083
 30
0.0
 10
42.882060
 20
29.405372
 30
0.0
 10
42.885136
 20
29.490414
 30
0.0
 10
42.881891
 20
29.576443
 30
0.0
 10
42.872126
 20
29.657534
 30
0.0
 10
42.855842
 20
29.733686
 30
0.0
 10
42.833038
 20
29.804900
 30
0.0
 10
42.803704
 20
29.871175
 30
0.0
 10
42.767851
 20
29.932512
 30
0.0
 10
42.725478
 20
29.988910
 30
0.0
 10
42.676586
 20
30.040369
 30
0.0
 10
42.623940
 20
30.087779
 30
0.0
 10
42.567148
 20
30.128868
 30
0.0
 10
42.506205
 20
30.163635
 30
0.0
 10
42.441116
 20
30.192081
 30
0.0
 10
42.371879
 20
30.214207
 30
0.0
 10
42.298492
 20
30.230012
 30
0.0
 10
42.220958
 20
30.239494
 30
0.0
 10
42.139232
 20
30.242655
 30
0.0
  0
LWPOLYLINE
  5
108
100
AcDbEntity
  8
logos
 62
7
100
AcDbPolyline
 90
65
 70
1
 10
42.404727
 20
27.372769
 30
0.0
 10
42.372429
 20
27.373954
 30
0.0
 10
42.329266
 20
27.377510
 30
0.0
 10
42.275237
 20
27.383437
 30
0.0
 10
42.210346
 20
27.391734
 30
0.0
 10
42.134589
 20
27.402402
 30
0.0
 10
42.047967
 20
27.415441
 30
0.0
 10
41.950479
 20
27.430850
 30
0.0
 10
41.842128
 20
27.448630
 30
0.0
 10
41.789581
 20
27.431347
 30
0.0
 10
41.739405
 20
27.411100
 30
0.0
 10
41.691602
 20
27.387890
 30
0.0
 10
41.646167
 20
27.361717
 30
0.0
 10
41.603103
 20
27.332580
 30
0.0
 10
41.562409
 20
27.300479
 30
0.0
 10
41.524086
 20
27.265415
 30
0.0
 10
41.488134
 20
27.227389
 30
0.0
 10
41.455540
 20
27.187781
 30
0.0
 10
41.427289
 20
27.147977
 30
0.0
 10
41.403385
 20
27.107975
 30
0.0
 10
41.383827
 20
27.067775
 30
0.0
 10
41.368615
 20
27.027378
 30
0.0
 10
41.357750
 20
26.986783
 30
0.0
 10
41.351230
 20
26.945991
 30
0.0
 10
41.348973
 20
26.905001
 30
0.0
 10
41.352839
 20
26.850973
 30
0.0
 10
41.364410
 20
26.799513
 30
0.0
 10
41.383658
 20
26.750621
 30
0.0
 10
41.410638
 20
26.704298
 30
0.0
 10
41.445306
 20
26.660542
 30
0.0
 10
41.487679
 20
26.619355
 30
0.0
 10
41.537754
 20
26.580736
 30
0.0
 10
41.595536
 20
26.544685
 30
0.0
 10
41.660131
 20
26.510608
 30
0.0
 10
41.730656
 20
26.481076
 30
0.0
 10
41.807104
 20
26.456088
 30
0.0
 10
41.889479
 20
26.435641
 30
0.0
 10
41.977781
 20
26.419737
 30
0.0
 10
42.072006
 20
26.408378
 30
0.0
 10
42.172161
 20
26.401562
 30
0.0
 10
42.278240
 20
26.399305
 30
0.0
 10
42.387381
 20
26.401675
 30
0.0
 10
42.490401
 20
26.408787
 30
0.0
 10
42.587293
 20
26.420641
 30
0.0
 10
42.678064
 20
26.437235
 30
0.0
 10
42.762711
 20
26.458568
 30
0.0
 10
42.841234
 20
26.484643
 30
0.0
 10
42.913635
 20
26.515460
 30
0.0
 10
42.979910
 20
26.551018
 30
0.0
 10
43.039173
 20
26.588155
 30
0.0
 10
43.090532
 20
26.626873
 30
0.0
 10
43.133992
 20
26.667172
 30
0.0
 10
43.169552
 20
26.709050
 30
0.0
 10
43.197209
 20
26.752509
 30
0.0
 10
43.216965
 20
26.797549
 30
0.0
 10
43.228818
 20
26.844168
 30
0.0
 10
43.232769
 20
26.892368
 30
0.0
 10
43.219815
 20
26.971780
 30
0.0
 10
43.180999
 20
27.045661
 30
0.0
 10
43.116305
 20
27.114011
 30
0.0
 10
43.025731
 20
27.176829
 30
0.0
 10
42.909281
 20
27.234116
 30
0.0
 10
42.766950
 20
27.285871
 30
0.0
 10
42.598743
 20
27.332096
 30
0.0
 10
42.404727
 20
27.372769
 30
0.0
  0
LWPOLYLINE
  5
109
100
AcDbEntity
  8
logos
 62
7
100
AcDbPolyline
 90
97
 70
1
 10
46.597087
 20
29.085852
 30
0.0
 10
46.316578
 20
29.085852
 30
0.0
 10
46.036069
 20
29.085852
 30
0.0
 10
45.755559
 20
29.085852
 30
0.0
 10
45.475050
 20
29.085852
 30
0.0
 10
45.194541
 20
29.085852
 30
0.0
 10
44.914032
 20
29.085852
 30
0.0
 10
44.633523
 20
29.085852
 30
0.0
 10
44.353014
 20
29.085852
 30
0.0
 10
44.394695
 20
28.826578
 30
0.0
 10
44.466007
 20
28.601874
 30
0.0
 10
44.566952
 20
28.411740
 30
0.0
 10
44.697525
 20
28.256176
 30
0.0
 10
44.857732
 20
28.135181
 30
0.0
 10
45.047571
 20
28.048757
 30
0.0
 10
45.267038
 20
27.996902
 30
0.0
 10
45.516139
 20
27.979616
 30
0.0
 10
45.636541
 20
27.982480
 30
0.0
 10
45.754374
 20
27.991074
 30
0.0
 10
45.869639
 20
28.005397
 30
0.0
 10
45.982339
 20
28.025449
 30
0.0
 10
46.092468
 20
28.051227
 30
0.0
 10
46.200028
 20
28.082735
 30
0.0
 10
46.305024
 20
28.119972
 30
0.0
 10
46.407448
 20
28.162938
 30
0.0
 10
46.416930
 20
28.106836
 30
0.0
 10
46.426413
 20
28.050734
 30
0.0
 10
46.435896
 20
27.994632
 30
0.0
 10
46.445378
 20
27.938530
 30
0.0
 10
46.454861
 20
27.882428
 30
0.0
 10
46.464344
 20
27.826326
 30
0.0
 10
46.473826
 20
27.770224
 30
0.0
 10
46.483309
 20
27.714123
 30
0.0
 10
46.349572
 20
27.657823
 30
0.0
 10
46.217021
 20
27.609030
 30
0.0
 10
46.085658
 20
27.567744
 30
0.0
 10
45.955477
 20
27.533965
 30
0.0
 10
45.826482
 20
27.507693
 30
0.0
 10
45.698672
 20
27.488925
 30
0.0
 10
45.572050
 20
27.477664
 30
0.0
 10
45.446611
 20
27.473911
 30
0.0
 10
45.254502
 20
27.481220
 30
0.0
 10
45.073256
 20
27.503146
 30
0.0
 10
44.902876
 20
27.539691
 30
0.0
 10
44.743361
 20
27.590854
 30
0.0
 10
44.594712
 20
27.656636
 30
0.0
 10
44.456925
 20
27.737035
 30
0.0
 10
44.330004
 20
27.832052
 30
0.0
 10
44.213949
 20
27.941688
 30
0.0
 10
44.110241
 20
28.062287
 30
0.0
 10
44.020358
 20
28.190195
 30
0.0
 10
43.944305
 20
28.325412
 30
0.0
 10
43.882078
 20
28.467938
 30
0.0
 10
43.833680
 20
28.617774
 30
0.0
 10
43.799110
 20
28.774918
 30
0.0
 10
43.778367
 20
28.939372
 30
0.0
 10
43.771453
 20
29.111135
 30
0.0
 10
43.777887
 20
29.276773
 30
0.0
 10
43.797135
 20
29.435498
 30
0.0
 10
43.829238
 20
29.587309
 30
0.0
 10
43.874176
 20
29.732206
 30
0.0
 10
43.931958
 20
29.870189
 30
0.0
 10
44.002578
 20
30.001258
 30
0.0
 10
44.086040
 20
30.125413
 30
0.0
 10
44.182343
 20
30.242654
 30
0.0
 10
44.289508
 20
30.349327
 30
0.0
 10
44.405566
 20
30.441776
 30
0.0
 10
44.530512
 20
30.520003
 30
0.0
 10
44.664344
 20
30.584007
 30
0.0
 10
44.807070
 20
30.633787
 30
0.0
 10
44.958682
 20
30.669345
 30
0.0
 10
45.119185
 20
30.690681
 30
0.0
 10
45.288578
 20
30.697793
 30
0.0
 10
45.433572
 20
30.692360
 30
0.0
 10
45.571457
 20
30.676062
 30
0.0
 10
45.702231
 20
30.648901
 30
0.0
 10
45.825889
 20
30.610874
 30
0.0
 10
45.942441
 20
30.561982
 30
0.0
 10
46.051879
 20
30.502225
 30
0.0
 10
46.154204
 20
30.431604
 30
0.0
 10
46.249420
 20
30.350117
 30
0.0
 10
46.336833
 20
30.259051
 30
0.0
 10
46.412590
 20
30.159688
 30
0.0
 10
46.476694
 20
30.052027
 30
0.0
 10
46.529139
 20
29.936071
 30
0.0
 10
46.569931
 20
29.811817
 30
0.0
 10
46.599071
 20
29.679266
 30
0.0
 10
46.616540
 20
29.538419
 30
0.0
 10
46.622382
 20
29.389275
 30
0.0
 10
46.622100
 20
29.349964
 30
0.0
 10
46.620971
 20
29.311048
 30
0.0
 10
46.618996
 20
29.272528
 30
0.0
 10
46.616174
 20
29.234403
 30
0.0
 10
46.612618
 20
29.196672
 30
0.0
 10
46.608271
 20
29.159337
 30
0.0
 10
46.603135
 20
29.122397
 30
0.0
 10
46.597087
 20
29.085852
 30
0.0
  0
LWPOLYLINE
  5
10a
100
AcDbEntity
  8
logos
 62
7
100
AcDbPolyline
 90
33
 70
1
 10
45.275928
 20
30.192084
 30
0.0
 10
45.111573
 20
30.180922
 30
0.0
 10
44.963023
 20
30.147439
 30
0.0
 10
44.830274
 20
30.091633
 30
0.0
 10
44.713330
 20
30.013506
 30
0.0
 10
44.612190
 20
29.913056
 30
0.0
 10
44.526851
 20
29.790284
 30
0.0
 10
44.457317
 20
29.645189
 30
0.0
 10
44.403585
 20
29.477773
 30
0.0
 10
44.607448
 20
29.477773
 30
0.0
 10
44.811312
 20
29.477773
 30
0.0
 10
45.015175
 20
29.477773
 30
0.0
 10
45.219035
 20
29.477773
 30
0.0
 10
45.422898
 20
29.477773
 30
0.0
 10
45.626762
 20
29.477773
 30
0.0
 10
45.830625
 20
29.477773
 30
0.0
 10
46.034488
 20
29.477773
 30
0.0
 10
46.031525
 20
29.559259
 30
0.0
 10
46.022635
 20
29.636202
 30
0.0
 10
46.007818
 20
29.708601
 30
0.0
 10
45.987075
 20
29.776456
 30
0.0
 10
45.960405
 20
29.839769
 30
0.0
 10
45.927811
 20
29.898537
 30
0.0
 10
45.889290
 20
29.952762
 30
0.0
 10
45.844843
 20
30.002444
 30
0.0
 10
45.794469
 20
30.046890
 30
0.0
 10
45.738172
 20
30.085411
 30
0.0
 10
45.675945
 20
30.118005
 30
0.0
 10
45.607794
 20
30.144673
 30
0.0
 10
45.533716
 20
30.165413
 30
0.0
 10
45.453711
 20
30.180230
 30
0.0
 10
45.367780
 20
30.189120
 30
0.0
 10
45.275928
 20
30.192084
 30
0.0
  0
LWPOLYLINE
  5
10b
100
AcDbEntity
  8
logos
 62
7
100
AcDbPolyline
 90
33
 70
1
 10
48.481437
 20
27.537123
 30
0.0
 10
48.380297
 20
27.537123
 30
0.0
 10
48.279154
 20
27.537123
 30
0.0
 10
48.178014
 20
27.537123
 30
0.0
 10
48.076871
 20
27.537123
 30
0.0
 10
47.975728
 20
27.537123
 30
0.0
 10
47.874588
 20
27.537123
 30
0.0
 10
47.773446
 20
27.537123
 30
0.0
 10
47.672306
 20
27.537123
 30
0.0
 10
47.672306
 20
28.090240
 30
0.0
 10
47.672306
 20
28.643357
 30
0.0
 10
47.672306
 20
29.196474
 30
0.0
 10
47.672306
 20
29.749590
 30
0.0
 10
47.672306
 20
30.302707
 30
0.0
 10
47.672306
 20
30.855824
 30
0.0
 10
47.672306
 20
31.408941
 30
0.0
 10
47.672306
 20
31.962057
 30
0.0
 10
47.773446
 20
31.962057
 30
0.0
 10
47.874588
 20
31.962057
 30
0.0
 10
47.975728
 20
31.962057
 30
0.0
 10
48.076871
 20
31.962057
 30
0.0
 10
48.178014
 20
31.962057
 30
0.0
 10
48.279154
 20
31.962057
 30
0.0
 10
48.380297
 20
31.962057
 30
0.0
 10
48.481437
 20
31.962057
 30
0.0
 10
48.481437
 20
31.408941
 30
0.0
 10
48.481437
 20
30.855824
 30
0.0
 10
48.481437
 20
30.302707
 30
0.0
 10
48.481437
 20
29.749590
 30
0.0
 10
48.481437
 20
29.196474
 30
0.0
 10
48.481437
 20
28.643357
 30
0.0
 10
48.481437
 20
28.090240
 30
0.0
 10
48.481437
 20
27.537123
 30
0.0
  0
LWPOLYLINE
  5
10c
100
AcDbEntity
  8
logos
 62
7
100
AcDbPolyline
 90
89
 70
1
 10
53.304564
 20
28.036510
 30
0.0
 10
53.246093
 20
27.966185
 30
0.0
 10
53.187619
 20
27.895860
 30
0.0
 10
53.129146
 20
27.825535
 30
0.0
 10
53.070675
 20
27.755211
 30
0.0
 10
53.012204
 20
27.684886
 30
0.0
 10
52.953730
 20
27.614561
 30
0.0
 10
52.895257
 20
27.544236
 30
0.0
 10
52.836786
 20
27.473911
 30
0.0
 10
52.782263
 20
27.518951
 30
0.0
 10
52.727744
 20
27.563990
 30
0.0
 10
52.673221
 20
27.609030
 30
0.0
 10
52.618699
 20
27.654069
 30
0.0
 10
52.564179
 20
27.699109
 30
0.0
 10
52.509657
 20
27.744148
 30
0.0
 10
52.455137
 20
27.789188
 30
0.0
 10
52.400614
 20
27.834227
 30
0.0
 10
52.264507
 20
27.743852
 30
0.0
 10
52.121686
 20
27.665526
 30
0.0
 10
51.972145
 20
27.599250
 30
0.0
 10
51.815889
 20
27.545025
 30
0.0
 10
51.652917
 20
27.502850
 30
0.0
 10
51.483228
 20
27.472724
 30
0.0
 10
51.306825
 20
27.454648
 30
0.0
 10
51.123703
 20
27.448623
 30
0.0
 10
50.888925
 20
27.458500
 30
0.0
 10
50.665010
 20
27.488132
 30
0.0
 10
50.451963
 20
27.537517
 30
0.0
 10
50.249779
 20
27.606657
 30
0.0
 10
50.058458
 20
27.695551
 30
0.0
 10
49.878005
 20
27.804199
 30
0.0
 10
49.708415
 20
27.932602
 30
0.0
 10
49.549690
 20
28.080759
 30
0.0
 10
49.407461
 20
28.246496
 30
0.0
 10
49.284195
 20
28.424481
 30
0.0
 10
49.179891
 20
28.614713
 30
0.0
 10
49.094553
 20
28.817193
 30
0.0
 10
49.028180
 20
29.031921
 30
0.0
 10
48.980770
 20
29.258896
 30
0.0
 10
48.952324
 20
29.498119
 30
0.0
 10
48.942842
 20
29.749589
 30
0.0
 10
48.952324
 20
30.000962
 30
0.0
 10
48.980770
 20
30.239889
 30
0.0
 10
49.028180
 20
30.466370
 30
0.0
 10
49.094553
 20
30.680407
 30
0.0
 10
49.179891
 20
30.881998
 30
0.0
 10
49.284195
 20
31.071145
 30
0.0
 10
49.407461
 20
31.247845
 30
0.0
 10
49.549690
 20
31.412101
 30
0.0
 10
49.708415
 20
31.561739
 30
0.0
 10
49.878005
 20
31.691425
 30
0.0
 10
50.058458
 20
31.801159
 30
0.0
 10
50.249779
 20
31.890942
 30
0.0
 10
50.451963
 20
31.960773
 30
0.0
 10
50.665010
 20
32.010652
 30
0.0
 10
50.888925
 20
32.040580
 30
0.0
 10
51.123703
 20
32.050556
 30
0.0
 10
51.358382
 20
32.040580
 30
0.0
 10
51.582001
 20
32.010652
 30
0.0
 10
51.794556
 20
31.960773
 30
0.0
 10
51.996049
 20
31.890942
 30
0.0
 10
52.186478
 20
31.801159
 30
0.0
 10
52.365845
 20
31.691425
 30
0.0
 10
52.534151
 20
31.561739
 30
0.0
 10
52.691394
 20
31.412101
 30
0.0
 10
52.835104
 20
31.247845
 30
0.0
 10
52.959654
 20
31.071145
 30
0.0
 10
53.065044
 20
30.881998
 30
0.0
 10
53.151272
 20
30.680407
 30
0.0
 10
53.218336
 20
30.466370
 30
0.0
 10
53.266241
 20
30.239889
 30
0.0
 10
53.294982
 20
30.000962
 30
0.0
 10
53.304578
 20
29.749589
 30
0.0
 10
53.298454
 20
29.553628
 30
0.0
 10
53.280081
 20
29.363988
 30
0.0
 10
53.249460
 20
29.180670
 30
0.0
 10
53.206596
 20
29.003672
 30
0.0
 10
53.151481
 20
28.832996
 30
0.0
 10
53.084120
 20
28.668642
 30
0.0
 10
53.004511
 20
28.510609
 30
0.0
 10
52.912653
 20
28.358897
 30
0.0
 10
52.961644
 20
28.318599
 30
0.0
 10
53.010635
 20
28.278300
 30
0.0
 10
53.059623
 20
28.238001
 30
0.0
 10
53.108614
 20
28.197703
 30
0.0
 10
53.157605
 20
28.157404
 30
0.0
 10
53.206596
 20
28.117106
 30
0.0
 10
53.255584
 20
28.076807
 30
0.0
 10
53.304564
 20
28.036510
 30
0.0
  0
LWPOLYLINE
  5
10d
100
AcDbEntity
  8
logos
 62
7
100
AcDbPolyline
 90
89
 70
1
 10
52.084548
 20
30.855825
 30
0.0
 10
51.996246
 20
30.953608
 30
0.0
 10
51.898857
 20
31.038353
 30
0.0
 10
51.792383
 20
31.110060
 30
0.0
 10
51.676822
 20
31.168730
 30
0.0
 10
51.552172
 20
31.214362
 30
0.0
 10
51.418436
 20
31.246956
 30
0.0
 10
51.275612
 20
31.266512
 30
0.0
 10
51.123703
 20
31.273031
 30
0.0
 10
50.971794
 20
31.266512
 30
0.0
 10
50.828972
 20
31.246956
 30
0.0
 10
50.695236
 20
31.214362
 30
0.0
 10
50.570587
 20
31.168730
 30
0.0
 10
50.455025
 20
31.110060
 30
0.0
 10
50.348551
 20
31.038353
 30
0.0
 10
50.251162
 20
30.953608
 30
0.0
 10
50.162860
 20
30.855825
 30
0.0
 10
50.084338
 20
30.747277
 30
0.0
 10
50.016285
 20
30.630233
 30
0.0
 10
49.958701
 20
30.504695
 30
0.0
 10
49.911586
 20
30.370663
 30
0.0
 10
49.874946
 20
30.228136
 30
0.0
 10
49.848784
 20
30.077115
 30
0.0
 10
49.833092
 20
29.917600
 30
0.0
 10
49.827871
 20
29.749590
 30
0.0
 10
49.833092
 20
29.581581
 30
0.0
 10
49.848784
 20
29.422066
 30
0.0
 10
49.874946
 20
29.271046
 30
0.0
 10
49.911589
 20
29.128520
 30
0.0
 10
49.958701
 20
28.994488
 30
0.0
 10
50.016285
 20
28.868950
 30
0.0
 10
50.084338
 20
28.751907
 30
0.0
 10
50.162860
 20
28.643358
 30
0.0
 10
50.251162
 20
28.545575
 30
0.0
 10
50.348548
 20
28.460829
 30
0.0
 10
50.455025
 20
28.389122
 30
0.0
 10
50.570587
 20
28.330452
 30
0.0
 10
50.695236
 20
28.284819
 30
0.0
 10
50.828970
 20
28.252225
 30
0.0
 10
50.971794
 20
28.232667
 30
0.0
 10
51.123703
 20
28.226148
 30
0.0
 10
51.212399
 20
28.228405
 30
0.0
 10
51.298331
 20
28.235221
 30
0.0
 10
51.381496
 20
28.246580
 30
0.0
 10
51.461895
 20
28.262484
 30
0.0
 10
51.539529
 20
28.282928
 30
0.0
 10
51.614397
 20
28.307916
 30
0.0
 10
51.686502
 20
28.337448
 30
0.0
 10
51.755838
 20
28.371524
 30
0.0
 10
51.689465
 20
28.427626
 30
0.0
 10
51.623089
 20
28.483728
 30
0.0
 10
51.556716
 20
28.539830
 30
0.0
 10
51.490340
 20
28.595932
 30
0.0
 10
51.423967
 20
28.652033
 30
0.0
 10
51.357594
 20
28.708135
 30
0.0
 10
51.291219
 20
28.764237
 30
0.0
 10
51.224845
 20
28.820339
 30
0.0
 10
51.283316
 20
28.890664
 30
0.0
 10
51.341790
 20
28.960989
 30
0.0
 10
51.400261
 20
29.031313
 30
0.0
 10
51.458734
 20
29.101638
 30
0.0
 10
51.517205
 20
29.171963
 30
0.0
 10
51.575679
 20
29.242288
 30
0.0
 10
51.634150
 20
29.312613
 30
0.0
 10
51.692623
 20
29.382938
 30
0.0
 10
51.762157
 20
29.324466
 30
0.0
 10
51.831691
 20
29.265993
 30
0.0
 10
51.901228
 20
29.207521
 30
0.0
 10
51.970762
 20
29.149049
 30
0.0
 10
52.040296
 20
29.090577
 30
0.0
 10
52.109829
 20
29.032105
 30
0.0
 10
52.179366
 20
28.973632
 30
0.0
 10
52.248900
 20
28.915160
 30
0.0
 10
52.288902
 20
29.005634
 30
0.0
 10
52.323570
 20
29.100059
 30
0.0
 10
52.352907
 20
29.198434
 30
0.0
 10
52.376896
 20
29.300761
 30
0.0
 10
52.395579
 20
29.407038
 30
0.0
 10
52.408900
 20
29.517267
 30
0.0
 10
52.416887
 20
29.631446
 30
0.0
 10
52.419427
 20
29.749576
 30
0.0
 10
52.414178
 20
29.917585
 30
0.0
 10
52.398486
 20
30.077100
 30
0.0
 10
52.372296
 20
30.228121
 30
0.0
 10
52.335655
 20
30.370648
 30
0.0
 10
52.288541
 20
30.504680
 30
0.0
 10
52.230956
 20
30.630218
 30
0.0
 10
52.162904
 20
30.747262
 30
0.0
 10
52.084548
 20
30.855825
 30
0.0
  0
ENDSEC
  0
SECTION
  2
OBJECTS
  0
DICTIONARY
  5
C
330
0
100
AcDbDictionary
  3
ACAD_GROUP
350
D
  3
ACAD_MLINESTYLE
350
17
  0
DICTIONARY
  5
D
330
C
100
AcDbDictionary
  0
DICTIONARY
  5
1A
330
C
100
AcDbDictionary
  0
DICTIONARY
  5
17
330
C
100
AcDbDictionary
  3
STANDARD
350
18
  0
DICTIONARY
  5
19
330
C
100
AcDbDictionary
  0
ENDSEC
  0
EOF
