  0
SECTION
  2
HEADER
  9
$ACADVER
  1
AC1014
  9
$HANDSEED
  5
FFFF
  9
$MEASUREMENT
 70
     1
  0
ENDSEC
  0
SECTION
  2
TABLES
  0
TABLE
  2
VPORT
  5
8
330
0
100
AcDbSymbolTable
 70
     4
  0
VPORT
  5
2E
330
8
100
AcDbSymbolTableRecord
100
AcDbViewportTableRecord
  2
*ACTIVE
 70
     0
 10
0.0
 20
0.0
 11
1.0
 21
1.0
 12
210.0
 22
148.5
 13
0.0
 23
0.0
 14
10.0
 24
10.0
 15
10.0
 25
10.0
 16
0.0
 26
0.0
 36
1.0
 17
0.0
 27
0.0
 37
0.0
 40
341.0
 41
1.24
 42
50.0
 43
0.0
 44
0.0
 50
0.0
 51
0.0
 71
     0
 72
   100
 73
     1
 74
     3
 75
     0
 76
     0
 77
     0
 78
     0
  0
ENDTAB
  0
TABLE
  2
LTYPE
  5
5
330
0
100
AcDbSymbolTable
 70
     1
  0
LTYPE
  5
14
330
5
100
AcDbSymbolTableRecord
100
AcDbLinetypeTableRecord
  2
BYBLOCK
 70
     0
  3

 72
    65
 73
     0
 40
0.0
  0
LTYPE
  5
15
330
5
100
AcDbSymbolTableRecord
100
AcDbLinetypeTableRecord
  2
BYLAYER
 70
     0
  3

 72
    65
 73
     0
 40
0.0
  0
LTYPE
  5
16
330
5
100
AcDbSymbolTableRecord
100
AcDbLinetypeTableRecord
  2
CONTINUOUS
 70
     0
  3
Solid line
 72
    65
 73
     0
 40
0.0
  0
ENDTAB
  0
TABLE
  2
LAYER
  5
2
100
AcDbSymbolTable
 70
4
  0
LAYER
  5
50
100
AcDbSymbolTableRecord
100
AcDbLayerTableRecord
  2
0
 70
0
  6
CONTINUOUS
  0
LAYER
  5
51
100
AcDbSymbolTableRecord
100
AcDbLayerTableRecord
  2
Artwork
 70
0
  6
CONTINUOUS
  0
LAYER
  5
52
100
AcDbSymbolTableRecord
100
AcDbLayerTableRecord
  2
Background
 70
0
  6
CONTINUOUS
  0
LAYER
  5
53
100
AcDbSymbolTableRecord
100
AcDbLayerTableRecord
  2
logos
 70
0
  6
CONTINUOUS
  0
ENDTAB
  0
TABLE
  2
STYLE
  5
3
330
0
100
AcDbSymbolTable
 70
     1
  0
STYLE
  5
11
330
3
100
AcDbSymbolTableRecord
100
AcDbTextStyleTableRecord
  2
STANDARD
 70
     0
 40
0.0
 41
1.0
 50
0.0
 71
     0
 42
2.5
  3
txt
  4

  0
ENDTAB
  0
TABLE
  2
VIEW
  5
6
330
0
100
AcDbSymbolTable
 70
     0
  0
ENDTAB
  0
TABLE
  2
UCS
  5
7
330
0
100
AcDbSymbolTable
 70
     0
  0
ENDTAB
  0
TABLE
  2
APPID
  5
9
330
0
100
AcDbSymbolTable
 70
     2
  0
APPID
  5
12
330
9
100
AcDbSymbolTableRecord
100
AcDbRegAppTableRecord
  2
ACAD
 70
     0
  0
ENDTAB
  0
TABLE
  2
DIMSTYLE
  5
A
330
0
100
AcDbSymbolTable
 70
     1
  0
DIMSTYLE
105
27
330
A
100
AcDbSymbolTableRecord
100
AcDbDimStyleTableRecord
  2
ISO-25
 70
     0
  3

  4

  5

  6

  7

 40
1.0
 41
2.5
 42
0.625
 43
3.75
 44
1.25
 45
0.0
 46
0.0
 47
0.0
 48
0.0
140
2.5
141
2.5
142
0.0
143
0.03937007874016
144
1.0
145
0.0
146
1.0
147
0.625
 71
     0
 72
     0
 73
     0
 74
     0
 75
     0
 76
     0
 77
     1
 78
     8
170
     0
171
     3
172
     1
173
     0
174
     0
175
     0
176
     0
177
     0
178
     0
270
     2
271
     2
272
     2
273
     2
274
     3
340
11
275
     0
280
     0
281
     0
282
     0
283
     0
284
     8
285
     0
286
     0
287
     3
288
     0
  0
ENDTAB
  0
TABLE
  2
BLOCK_RECORD
  5
1
330
0
100
AcDbSymbolTable
 70
     1
  0
BLOCK_RECORD
  5
1F
330
1
100
AcDbSymbolTableRecord
100
AcDbBlockTableRecord
  2
*MODEL_SPACE
  0
BLOCK_RECORD
  5
1B
330
1
100
AcDbSymbolTableRecord
100
AcDbBlockTableRecord
  2
*PAPER_SPACE
  0
ENDTAB
  0
ENDSEC
  0
SECTION
  2
BLOCKS
  0
BLOCK
  5
20
330
1F
100
AcDbEntity
  8
0
100
AcDbBlockBegin
  2
*MODEL_SPACE
 70
     0
 10
0.0
 20
0.0
 30
0.0
  3
*MODEL_SPACE
  1

  0
ENDBLK
  5
21
330
1F
100
AcDbEntity
  8
0
100
AcDbBlockEnd
  0
BLOCK
  5
1C
330
1B
100
AcDbEntity
 67
     1
  8
0
100
AcDbBlockBegin
  2
*PAPER_SPACE
  1

  0
ENDBLK
  5
1D
330
1B
100
AcDbEntity
 67
     1
  8
0
100
AcDbBlockEnd
  0
ENDSEC
  0
SECTION
  2
ENTITIES
  0
LWPOLYLINE
  5
100
100
AcDbEntity
  8
logos
 62
7
100
AcDbPolyline
 90
89
 70
0
 10
30.293815
 20
32.755896
 30
0.0
 10
30.060777
 20
32.755896
 30
0.0
 10
29.827739
 20
32.755896
 30
0.0
 10
29.594700
 20
32.755896
 30
0.0
 10
29.361662
 20
32.755896
 30
0.0
 10
29.128623
 20
32.755896
 30
0.0
 10
28.895585
 20
32.755896
 30
0.0
 10
28.662547
 20
32.755896
 30
0.0
 10
28.429508
 20
32.755896
 30
0.0
 10
28.429508
 20
32.506360
 30
0.0
 10
28.429508
 20
32.256823
 30
0.0
 10
28.429508
 20
32.007286
 30
0.0
 10
28.429508
 20
31.757750
 30
0.0
 10
28.429508
 20
31.508213
 30
0.0
 10
28.429508
 20
31.258677
 30
0.0
 10
28.429508
 20
31.009140
 30
0.0
 10
28.429508
 20
30.759603
 30
0.0
 10
28.662547
 20
30.759603
 30
0.0
 10
28.895585
 20
30.759603
 30
0.0
 10
29.128623
 20
30.759603
 30
0.0
 10
29.361662
 20
30.759603
 30
0.0
 10
29.594700
 20
30.759603
 30
0.0
 10
29.827739
 20
30.759603
 30
0.0
 10
30.060777
 20
30.759603
 30
0.0
 10
30.293815
 20
30.759603
 30
0.0
 10
30.293815
 20
30.656489
 30
0.0
 10
30.293815
 20
30.553375
 30
0.0
 10
30.293815
 20
30.450260
 30
0.0
 10
30.293815
 20
30.347146
 30
0.0
 10
30.293815
 20
30.244032
 30
0.0
 10
30.293815
 20
30.140917
 30
0.0
 10
30.293815
 20
30.037803
 30
0.0
 10
30.293815
 20
29.934689
 30
0.0
 10
30.060777
 20
29.934689
 30
0.0
 10
29.827739
 20
29.934689
 30
0.0
 10
29.594700
 20
29.934689
 30
0.0
 10
29.361662
 20
29.934689
 30
0.0
 10
29.128623
 20
29.934689
 30
0.0
 10
28.895585
 20
29.934689
 30
0.0
 10
28.662547
 20
29.934689
 30
0.0
 10
28.429508
 20
29.934689
 30
0.0
 10
28.429508
 20
29.579975
 30
0.0
 10
28.429508
 20
29.225262
 30
0.0
 10
28.429508
 20
28.870549
 30
0.0
 10
28.429508
 20
28.515836
 30
0.0
 10
28.429508
 20
28.161122
 30
0.0
 10
28.429508
 20
27.806409
 30
0.0
 10
28.429508
 20
27.451696
 30
0.0
 10
28.429508
 20
27.096983
 30
0.0
 10
28.326394
 20
27.096983
 30
0.0
 10
28.223280
 20
27.096983
 30
0.0
 10
28.120165
 20
27.096983
 30
0.0
 10
28.017051
 20
27.096983
 30
0.0
 10
27.913937
 20
27.096983
 30
0.0
 10
27.810823
 20
27.096983
 30
0.0
 10
27.707708
 20
27.096983
 30
0.0
 10
27.604594
 20
27.096983
 30
0.0
 10
27.604594
 20
27.909524
 30
0.0
 10
27.604594
 20
28.722064
 30
0.0
 10
27.604594
 20
29.534605
 30
0.0
 10
27.604594
 20
30.347146
 30
0.0
 10
27.604594
 20
31.159687
 30
0.0
 10
27.604594
 20
31.972228
 30
0.0
 10
27.604594
 20
32.784768
 30
0.0
 10
27.604594
 20
33.597309
 30
0.0
 10
27.940747
 20
33.597309
 30
0.0
 10
28.276899
 20
33.597309
 30
0.0
 10
28.613052
 20
33.597309
 30
0.0
 10
28.949205
 20
33.597309
 30
0.0
 10
29.285357
 20
33.597309
 30
0.0
 10
29.621510
 20
33.597309
 30
0.0
 10
29.957663
 20
33.597309
 30
0.0
 10
30.293815
 20
33.597309
 30
0.0
 10
30.293815
 20
33.492133
 30
0.0
 10
30.293815
 20
33.386956
 30
0.0
 10
30.293815
 20
33.281779
 30
0.0
 10
30.293815
 20
33.176603
 30
0.0
 10
30.293815
 20
33.071426
 30
0.0
 10
30.293815
 20
32.966250
 30
0.0
 10
30.293815
 20
32.861073
 30
0.0
 10
30.293815
 20
32.755896
 30
0.0
 10
30.293815
 20
32.755896
 30
0.0
 10
30.293815
 20
32.755896
 30
0.0
 10
30.293815
 20
32.755896
 30
0.0
 10
30.293815
 20
32.755896
 30
0.0
 10
30.293815
 20
32.755896
 30
0.0
 10
30.293815
 20
32.755896
 30
0.0
 10
30.293815
 20
32.755896
 30
0.0
 10
30.293815
 20
32.755896
 30
0.0
  0
LWPOLYLINE
  5
101
100
AcDbEntity
  8
logos
 62
7
100
AcDbPolyline
 90
129
 70
0
 10
32.422095
 20
27.080484
 30
0.0
 10
32.307638
 20
27.082844
 30
0.0
 10
32.199368
 20
27.090037
 30
0.0
 10
32.097285
 20
27.102246
 30
0.0
 10
32.001388
 20
27.119668
 30
0.0
 10
31.911679
 20
27.142515
 30
0.0
 10
31.828156
 20
27.170968
 30
0.0
 10
31.750821
 20
27.205220
 30
0.0
 10
31.679672
 20
27.245467
 30
0.0
 10
31.613195
 20
27.288775
 30
0.0
 10
31.550005
 20
27.332083
 30
0.0
 10
31.490296
 20
27.375391
 30
0.0
 10
31.434260
 20
27.418699
 30
0.0
 10
31.382090
 20
27.462007
 30
0.0
 10
31.333981
 20
27.505315
 30
0.0
 10
31.290125
 20
27.548623
 30
0.0
 10
31.250716
 20
27.591931
 30
0.0
 10
31.164068
 20
27.715669
 30
0.0
 10
31.089600
 20
27.851780
 30
0.0
 10
31.027119
 20
28.000264
 30
0.0
 10
30.976432
 20
28.161122
 30
0.0
 10
30.937345
 20
28.334355
 30
0.0
 10
30.909665
 20
28.519960
 30
0.0
 10
30.893200
 20
28.717940
 30
0.0
 10
30.887754
 20
28.928293
 30
0.0
 10
30.887754
 20
29.278882
 30
0.0
 10
30.887754
 20
29.629470
 30
0.0
 10
30.887754
 20
29.980059
 30
0.0
 10
30.887754
 20
30.330648
 30
0.0
 10
30.887754
 20
30.681236
 30
0.0
 10
30.887754
 20
31.031825
 30
0.0
 10
30.887754
 20
31.382414
 30
0.0
 10
30.887754
 20
31.733002
 30
0.0
 10
30.893200
 20
31.943356
 30
0.0
 10
30.909665
 20
32.141335
 30
0.0
 10
30.937345
 20
32.326941
 30
0.0
 10
30.976432
 20
32.500173
 30
0.0
 10
31.027119
 20
32.661031
 30
0.0
 10
31.089600
 20
32.809516
 30
0.0
 10
31.164068
 20
32.945627
 30
0.0
 10
31.250716
 20
33.069364
 30
0.0
 10
31.269309
 20
33.093402
 30
0.0
 10
31.288095
 20
33.116280
 30
0.0
 10
31.307267
 20
33.138386
 30
0.0
 10
31.327020
 20
33.160105
 30
0.0
 10
31.347547
 20
33.181823
 30
0.0
 10
31.369040
 20
33.203927
 30
0.0
 10
31.391692
 20
33.226807
 30
0.0
 10
31.415699
 20
33.250845
 30
0.0
 10
31.441220
 20
33.274852
 30
0.0
 10
31.468287
 20
33.297504
 30
0.0
 10
31.496902
 20
33.318998
 30
0.0
 10
31.527062
 20
33.339523
 30
0.0
 10
31.558770
 20
33.359277
 30
0.0
 10
31.592024
 20
33.378450
 30
0.0
 10
31.626825
 20
33.397234
 30
0.0
 10
31.663173
 20
33.415828
 30
0.0
 10
31.701036
 20
33.434324
 30
0.0
 10
31.740251
 20
33.452434
 30
0.0
 10
31.780627
 20
33.469769
 30
0.0
 10
31.821969
 20
33.485954
 30
0.0
 10
31.864085
 20
33.500588
 30
0.0
 10
31.906781
 20
33.513275
 30
0.0
 10
31.949863
 20
33.523653
 30
0.0
 10
31.993139
 20
33.531316
 30
0.0
 10
32.037962
 20
33.542914
 30
0.0
 10
32.085684
 20
33.552962
 30
0.0
 10
32.136114
 20
33.561475
 30
0.0
 10
32.189056
 20
33.568437
 30
0.0
 10
32.244319
 20
33.573849
 30
0.0
 10
32.301709
 20
33.577709
 30
0.0
 10
32.361032
 20
33.580036
 30
0.0
 10
32.422095
 20
33.580811
 30
0.0
 10
32.536552
 20
33.578452
 30
0.0
 10
32.644822
 20
33.571258
 30
0.0
 10
32.746905
 20
33.559050
 30
0.0
 10
32.842801
 20
33.541618
 30
0.0
 10
32.932511
 20
33.518771
 30
0.0
 10
33.016033
 20
33.490318
 30
0.0
 10
33.093369
 20
33.456066
 30
0.0
 10
33.164518
 20
33.415828
 30
0.0
 10
33.230994
 20
33.372520
 30
0.0
 10
33.294184
 20
33.329212
 30
0.0
 10
33.353894
 20
33.285904
 30
0.0
 10
33.409930
 20
33.242596
 30
0.0
 10
33.462099
 20
33.199288
 30
0.0
 10
33.510208
 20
33.155980
 30
0.0
 10
33.554064
 20
33.112672
 30
0.0
 10
33.593473
 20
33.069364
 30
0.0
 10
33.680122
 20
32.945627
 30
0.0
 10
33.754589
 20
32.809516
 30
0.0
 10
33.817070
 20
32.661031
 30
0.0
 10
33.867757
 20
32.500173
 30
0.0
 10
33.906844
 20
32.326941
 30
0.0
 10
33.934524
 20
32.141335
 30
0.0
 10
33.950989
 20
31.943356
 30
0.0
 10
33.956435
 20
31.733002
 30
0.0
 10
33.956435
 20
31.382414
 30
0.0
 10
33.956435
 20
31.031825
 30
0.0
 10
33.956435
 20
30.681236
 30
0.0
 10
33.956435
 20
30.330648
 30
0.0
 10
33.956435
 20
29.980059
 30
0.0
 10
33.956435
 20
29.629470
 30
0.0
 10
33.956435
 20
29.278882
 30
0.0
 10
33.956435
 20
28.928293
 30
0.0
 10
33.950989
 20
28.717940
 30
0.0
 10
33.934524
 20
28.519960
 30
0.0
 10
33.906844
 20
28.334355
 30
0.0
 10
33.867757
 20
28.161122
 30
0.0
 10
33.817070
 20
28.000264
 30
0.0
 10
33.754589
 20
27.851780
 30
0.0
 10
33.680122
 20
27.715669
 30
0.0
 10
33.593473
 20
27.591931
 30
0.0
 10
33.554741
 20
27.548623
 30
0.0
 10
33.512529
 20
27.505315
 30
0.0
 10
33.466449
 20
27.462007
 30
0.0
 10
33.416117
 20
27.418699
 30
0.0
 10
33.361144
 20
27.375391
 30
0.0
 10
33.301144
 20
27.332083
 30
0.0
 10
33.235731
 20
27.288775
 30
0.0
 10
33.164518
 20
27.245467
 30
0.0
 10
33.093369
 20
27.209958
 30
0.0
 10
33.016033
 20
27.177928
 30
0.0
 10
32.932511
 20
27.149764
 30
0.0
 10
32.842801
 20
27.125855
 30
0.0
 10
32.746905
 20
27.106585
 30
0.0
 10
32.644822
 20
27.092347
 30
0.0
 10
32.536552
 20
27.083520
 30
0.0
 10
32.422095
 20
27.080484
 30
0.0
  0
LWPOLYLINE
  5
102
100
AcDbEntity
  8
logos
 62
7
100
AcDbPolyline
 90
145
 70
0
 10
32.422095
 20
32.755896
 30
0.0
 10
32.397315
 20
32.755863
 30
0.0
 10
32.372342
 20
32.755698
 30
0.0
 10
32.346982
 20
32.755038
 30
0.0
 10
32.321043
 20
32.753884
 30
0.0
 10
32.294330
 20
32.751920
 30
0.0
 10
32.266650
 20
32.748984
 30
0.0
 10
32.237810
 20
32.744892
 30
0.0
 10
32.207617
 20
32.739398
 30
0.0
 10
32.177392
 20
32.732403
 30
0.0
 10
32.148326
 20
32.723675
 30
0.0
 10
32.120034
 20
32.713001
 30
0.0
 10
32.092129
 20
32.700215
 30
0.0
 10
32.064224
 20
32.685102
 30
0.0
 10
32.035932
 20
32.667475
 30
0.0
 10
32.006866
 20
32.647143
 30
0.0
 10
31.976641
 20
32.623910
 30
0.0
 10
31.946480
 20
32.597617
 30
0.0
 10
31.917866
 20
32.568228
 30
0.0
 10
31.890798
 20
32.535748
 30
0.0
 10
31.865277
 20
32.500173
 30
0.0
 10
31.841303
 20
32.461506
 30
0.0
 10
31.818876
 20
32.419744
 30
0.0
 10
31.797995
 20
32.374890
 30
0.0
 10
31.778661
 20
32.326941
 30
0.0
 10
31.761615
 20
32.274386
 30
0.0
 10
31.747470
 20
32.215835
 30
0.0
 10
31.736031
 20
32.151485
 30
0.0
 10
31.727106
 20
32.081529
 30
0.0
 10
31.720500
 20
32.006158
 30
0.0
 10
31.716021
 20
31.925569
 30
0.0
 10
31.713475
 20
31.839951
 30
0.0
 10
31.712668
 20
31.749501
 30
0.0
 10
31.712668
 20
31.398912
 30
0.0
 10
31.712668
 20
31.048323
 30
0.0
 10
31.712668
 20
30.697735
 30
0.0
 10
31.712668
 20
30.347146
 30
0.0
 10
31.712668
 20
29.996557
 30
0.0
 10
31.712668
 20
29.645969
 30
0.0
 10
31.712668
 20
29.295380
 30
0.0
 10
31.712668
 20
28.944791
 30
0.0
 10
31.713477
 20
28.848895
 30
0.0
 10
31.716022
 20
28.759186
 30
0.0
 10
31.720502
 20
28.675663
 30
0.0
 10
31.727108
 20
28.598327
 30
0.0
 10
31.736033
 20
28.527178
 30
0.0
 10
31.747471
 20
28.462216
 30
0.0
 10
31.761617
 20
28.403441
 30
0.0
 10
31.778661
 20
28.350853
 30
0.0
 10
31.797995
 20
28.302905
 30
0.0
 10
31.818876
 20
28.258050
 30
0.0
 10
31.841303
 20
28.216289
 30
0.0
 10
31.865277
 20
28.177621
 30
0.0
 10
31.890798
 20
28.142046
 30
0.0
 10
31.917866
 20
28.109565
 30
0.0
 10
31.946480
 20
28.080179
 30
0.0
 10
31.976641
 20
28.053884
 30
0.0
 10
32.006866
 20
28.030684
 30
0.0
 10
32.035932
 20
28.010576
 30
0.0
 10
32.064224
 20
27.993561
 30
0.0
 10
32.092129
 20
27.979636
 30
0.0
 10
32.120034
 20
27.968813
 30
0.0
 10
32.148326
 20
27.961076
 30
0.0
 10
32.177392
 20
27.956440
 30
0.0
 10
32.207617
 20
27.954955
 30
0.0
 10
32.237810
 20
27.949510
 30
0.0
 10
32.266650
 20
27.945419
 30
0.0
 10
32.294330
 20
27.942482
 30
0.0
 10
32.321043
 20
27.940519
 30
0.0
 10
32.346982
 20
27.939364
 30
0.0
 10
32.372342
 20
27.938704
 30
0.0
 10
32.397315
 20
27.938539
 30
0.0
 10
32.422095
 20
27.938506
 30
0.0
 10
32.446874
 20
27.938539
 30
0.0
 10
32.471847
 20
27.938704
 30
0.0
 10
32.497207
 20
27.939364
 30
0.0
 10
32.523147
 20
27.940519
 30
0.0
 10
32.549860
 20
27.942482
 30
0.0
 10
32.577539
 20
27.945419
 30
0.0
 10
32.606379
 20
27.949510
 30
0.0
 10
32.636573
 20
27.954894
 30
0.0
 10
32.667475
 20
27.961856
 30
0.0
 10
32.698183
 20
27.970369
 30
0.0
 10
32.728505
 20
27.980417
 30
0.0
 10
32.758247
 20
27.992015
 30
0.0
 10
32.787216
 20
28.005164
 30
0.0
 10
32.815218
 20
28.019864
 30
0.0
 10
32.842060
 20
28.036098
 30
0.0
 10
32.867549
 20
28.053884
 30
0.0
 10
32.897001
 20
28.080179
 30
0.0
 10
32.923746
 20
28.109565
 30
0.0
 10
32.948171
 20
28.142047
 30
0.0
 10
32.970663
 20
28.177621
 30
0.0
 10
32.991608
 20
28.216289
 30
0.0
 10
33.011393
 20
28.258050
 30
0.0
 10
33.030405
 20
28.302905
 30
0.0
 10
33.049030
 20
28.350853
 30
0.0
 10
33.066785
 20
28.408854
 30
0.0
 10
33.082800
 20
28.471497
 30
0.0
 10
33.096881
 20
28.538778
 30
0.0
 10
33.108836
 20
28.610701
 30
0.0
 10
33.118471
 20
28.687263
 30
0.0
 10
33.125591
 20
28.768466
 30
0.0
 10
33.130006
 20
28.854308
 30
0.0
 10
33.131521
 20
28.944791
 30
0.0
 10
33.131521
 20
29.295380
 30
0.0
 10
33.131521
 20
29.645969
 30
0.0
 10
33.131521
 20
29.996557
 30
0.0
 10
33.131521
 20
30.347146
 30
0.0
 10
33.131521
 20
30.697735
 30
0.0
 10
33.131521
 20
31.048323
 30
0.0
 10
33.131521
 20
31.398912
 30
0.0
 10
33.131521
 20
31.749501
 30
0.0
 10
33.130003
 20
31.839951
 30
0.0
 10
33.125588
 20
31.925569
 30
0.0
 10
33.118468
 20
32.006158
 30
0.0
 10
33.108833
 20
32.081529
 30
0.0
 10
33.096878
 20
32.151485
 30
0.0
 10
33.082797
 20
32.215835
 30
0.0
 10
33.066782
 20
32.274386
 30
0.0
 10
33.049030
 20
32.326941
 30
0.0
 10
33.029728
 20
32.380303
 30
0.0
 10
33.009073
 20
32.429024
 30
0.0
 10
32.987258
 20
32.473106
 30
0.0
 10
32.964476
 20
32.512547
 30
0.0
 10
32.940921
 20
32.547348
 30
0.0
 10
32.916786
 20
32.577509
 30
0.0
 10
32.892264
 20
32.603030
 30
0.0
 10
32.867549
 20
32.623910
 30
0.0
 10
32.837323
 20
32.647143
 30
0.0
 10
32.808258
 20
32.667475
 30
0.0
 10
32.779966
 20
32.685102
 30
0.0
 10
32.752061
 20
32.700215
 30
0.0
 10
32.724155
 20
32.713001
 30
0.0
 10
32.695863
 20
32.723675
 30
0.0
 10
32.666798
 20
32.732403
 30
0.0
 10
32.636573
 20
32.739398
 30
0.0
 10
32.605703
 20
32.740058
 30
0.0
 10
32.575220
 20
32.741922
 30
0.0
 10
32.545510
 20
32.744562
 30
0.0
 10
32.516960
 20
32.747598
 30
0.0
 10
32.489957
 20
32.750633
 30
0.0
 10
32.464887
 20
32.753273
 30
0.0
 10
32.442138
 20
32.755137
 30
0.0
 10
32.422095
 20
32.755896
 30
0.0
  0
LWPOLYLINE
  5
103
100
AcDbEntity
  8
logos
 62
7
100
AcDbPolyline
 90
137
 70
0
 10
36.959125
 20
30.281153
 30
0.0
 10
37.018705
 20
30.223924
 30
0.0
 10
37.073839
 20
30.163602
 30
0.0
 10
37.124720
 20
30.100186
 30
0.0
 10
37.171540
 20
30.033678
 30
0.0
 10
37.214493
 20
29.964077
 30
0.0
 10
37.253774
 20
29.891381
 30
0.0
 10
37.289574
 20
29.815591
 30
0.0
 10
37.322087
 20
29.736709
 30
0.0
 10
37.351442
 20
29.655442
 30
0.0
 10
37.377511
 20
29.572243
 30
0.0
 10
37.400099
 20
29.486722
 30
0.0
 10
37.419015
 20
29.398494
 30
0.0
 10
37.434061
 20
29.307173
 30
0.0
 10
37.445049
 20
29.212372
 30
0.0
 10
37.451780
 20
29.113706
 30
0.0
 10
37.454073
 20
29.010784
 30
0.0
 10
37.454073
 20
28.769497
 30
0.0
 10
37.454073
 20
28.528209
 30
0.0
 10
37.454073
 20
28.286922
 30
0.0
 10
37.454073
 20
28.045634
 30
0.0
 10
37.454073
 20
27.804347
 30
0.0
 10
37.454073
 20
27.563059
 30
0.0
 10
37.454073
 20
27.321772
 30
0.0
 10
37.454073
 20
27.080484
 30
0.0
 10
37.348897
 20
27.080484
 30
0.0
 10
37.243720
 20
27.080484
 30
0.0
 10
37.138544
 20
27.080484
 30
0.0
 10
37.033367
 20
27.080484
 30
0.0
 10
36.928190
 20
27.080484
 30
0.0
 10
36.823014
 20
27.080484
 30
0.0
 10
36.717837
 20
27.080484
 30
0.0
 10
36.612661
 20
27.080484
 30
0.0
 10
36.612661
 20
27.321772
 30
0.0
 10
36.612661
 20
27.563059
 30
0.0
 10
36.612661
 20
27.804347
 30
0.0
 10
36.612661
 20
28.045634
 30
0.0
 10
36.612661
 20
28.286922
 30
0.0
 10
36.612661
 20
28.528209
 30
0.0
 10
36.612661
 20
28.769497
 30
0.0
 10
36.612661
 20
29.010784
 30
0.0
 10
36.599544
 20
29.213436
 30
0.0
 10
36.560328
 20
29.388440
 30
0.0
 10
36.495206
 20
29.535991
 30
0.0
 10
36.404368
 20
29.656280
 30
0.0
 10
36.288010
 20
29.749502
 30
0.0
 10
36.146325
 20
29.815850
 30
0.0
 10
35.979504
 20
29.855517
 30
0.0
 10
35.787746
 20
29.868696
 30
0.0
 10
35.736189
 20
29.868696
 30
0.0
 10
35.684632
 20
29.868696
 30
0.0
 10
35.633075
 20
29.868696
 30
0.0
 10
35.581517
 20
29.868696
 30
0.0
 10
35.529960
 20
29.868696
 30
0.0
 10
35.478403
 20
29.868696
 30
0.0
 10
35.426846
 20
29.868696
 30
0.0
 10
35.375289
 20
29.868696
 30
0.0
 10
35.362915
 20
29.868696
 30
0.0
 10
35.350541
 20
29.868696
 30
0.0
 10
35.338168
 20
29.868696
 30
0.0
 10
35.325794
 20
29.868696
 30
0.0
 10
35.313420
 20
29.868696
 30
0.0
 10
35.301046
 20
29.868696
 30
0.0
 10
35.288673
 20
29.868696
 30
0.0
 10
35.276299
 20
29.868696
 30
0.0
 10
35.276299
 20
29.522231
 30
0.0
 10
35.276299
 20
29.175767
 30
0.0
 10
35.276299
 20
28.829303
 30
0.0
 10
35.276299
 20
28.482839
 30
0.0
 10
35.276299
 20
28.136375
 30
0.0
 10
35.276299
 20
27.789911
 30
0.0
 10
35.276299
 20
27.443447
 30
0.0
 10
35.276299
 20
27.096983
 30
0.0
 10
35.173185
 20
27.096983
 30
0.0
 10
35.070070
 20
27.096983
 30
0.0
 10
34.966956
 20
27.096983
 30
0.0
 10
34.863842
 20
27.096983
 30
0.0
 10
34.760727
 20
27.096983
 30
0.0
 10
34.657613
 20
27.096983
 30
0.0
 10
34.554499
 20
27.096983
 30
0.0
 10
34.451384
 20
27.096983
 30
0.0
 10
34.451384
 20
27.909524
 30
0.0
 10
34.451384
 20
28.722064
 30
0.0
 10
34.451384
 20
29.534605
 30
0.0
 10
34.451384
 20
30.347146
 30
0.0
 10
34.451384
 20
31.159687
 30
0.0
 10
34.451384
 20
31.972228
 30
0.0
 10
34.451384
 20
32.784768
 30
0.0
 10
34.451384
 20
33.597309
 30
0.0
 10
34.620492
 20
33.597309
 30
0.0
 10
34.789599
 20
33.597309
 30
0.0
 10
34.958707
 20
33.597309
 30
0.0
 10
35.127814
 20
33.597309
 30
0.0
 10
35.296922
 20
33.597309
 30
0.0
 10
35.466029
 20
33.597309
 30
0.0
 10
35.635137
 20
33.597309
 30
0.0
 10
35.804244
 20
33.597309
 30
0.0
 10
36.007670
 20
33.589572
 30
0.0
 10
36.197367
 20
33.566372
 30
0.0
 10
36.373533
 20
33.527703
 30
0.0
 10
36.536356
 20
33.473569
 30
0.0
 10
36.686033
 20
33.403966
 30
0.0
 10
36.822756
 20
33.318897
 30
0.0
 10
36.946718
 20
33.218360
 30
0.0
 10
37.058114
 20
33.102357
 30
0.0
 10
37.150917
 20
32.983325
 30
0.0
 10
37.231346
 20
32.849211
 30
0.0
 10
37.299402
 20
32.700404
 30
0.0
 10
37.355084
 20
32.537291
 30
0.0
 10
37.398392
 20
32.360256
 30
0.0
 10
37.429326
 20
32.169689
 30
0.0
 10
37.447887
 20
31.965973
 30
0.0
 10
37.454073
 20
31.749497
 30
0.0
 10
37.447887
 20
31.532990
 30
0.0
 10
37.429326
 20
31.329048
 30
0.0
 10
37.398392
 20
31.137868
 30
0.0
 10
37.355084
 20
30.959642
 30
0.0
 10
37.299402
 20
30.794561
 30
0.0
 10
37.231346
 20
30.642823
 30
0.0
 10
37.150917
 20
30.504617
 30
0.0
 10
37.058114
 20
30.380139
 30
0.0
 10
37.051928
 20
30.373952
 30
0.0
 10
37.045741
 20
30.367766
 30
0.0
 10
37.039554
 20
30.361579
 30
0.0
 10
37.033367
 20
30.355392
 30
0.0
 10
37.027180
 20
30.349205
 30
0.0
 10
37.020993
 20
30.343018
 30
0.0
 10
37.014806
 20
30.336831
 30
0.0
 10
37.008620
 20
30.330648
 30
0.0
 10
37.002433
 20
30.324461
 30
0.0
 10
36.996246
 20
30.318274
 30
0.0
 10
36.990059
 20
30.312087
 30
0.0
 10
36.983872
 20
30.305900
 30
0.0
 10
36.977685
 20
30.299713
 30
0.0
 10
36.971498
 20
30.293527
 30
0.0
 10
36.965312
 20
30.287340
 30
0.0
 10
36.959125
 20
30.281153
 30
0.0
  0
LWPOLYLINE
  5
104
100
AcDbEntity
  8
logos
 62
7
100
AcDbPolyline
 90
89
 70
0
 10
35.787746
 20
30.710108
 30
0.0
 10
35.870528
 20
30.711593
 30
0.0
 10
35.945768
 20
30.716015
 30
0.0
 10
36.013664
 20
30.723142
 30
0.0
 10
36.074404
 20
30.732777
 30
0.0
 10
36.128185
 20
30.744738
 30
0.0
 10
36.175198
 20
30.758828
 30
0.0
 10
36.215637
 20
30.774848
 30
0.0
 10
36.249698
 20
30.792600
 30
0.0
 10
36.279794
 20
30.811096
 30
0.0
 10
36.307957
 20
30.829206
 30
0.0
 10
36.333801
 20
30.846541
 30
0.0
 10
36.356937
 20
30.862726
 30
0.0
 10
36.376979
 20
30.877360
 30
0.0
 10
36.393543
 20
30.890063
 30
0.0
 10
36.406231
 20
30.900441
 30
0.0
 10
36.414678
 20
30.908113
 30
0.0
 10
36.461079
 20
30.975363
 30
0.0
 10
36.501294
 20
31.053246
 30
0.0
 10
36.535322
 20
31.141570
 30
0.0
 10
36.563162
 20
31.240141
 30
0.0
 10
36.584816
 20
31.348765
 30
0.0
 10
36.600275
 20
31.467250
 30
0.0
 10
36.609564
 20
31.595402
 30
0.0
 10
36.612661
 20
31.733002
 30
0.0
 10
36.611836
 20
31.811853
 30
0.0
 10
36.609509
 20
31.887416
 30
0.0
 10
36.605649
 20
31.959499
 30
0.0
 10
36.600237
 20
32.027909
 30
0.0
 10
36.593275
 20
32.092452
 30
0.0
 10
36.584762
 20
32.152935
 30
0.0
 10
36.574714
 20
32.209165
 30
0.0
 10
36.563166
 20
32.260948
 30
0.0
 10
36.549984
 20
32.308928
 30
0.0
 10
36.535069
 20
32.354008
 30
0.0
 10
36.518216
 20
32.396382
 30
0.0
 10
36.499236
 20
32.436242
 30
0.0
 10
36.477937
 20
32.473782
 30
0.0
 10
36.454124
 20
32.509196
 30
0.0
 10
36.427604
 20
32.542676
 30
0.0
 10
36.398183
 20
32.574415
 30
0.0
 10
36.372630
 20
32.603804
 30
0.0
 10
36.345337
 20
32.630097
 30
0.0
 10
36.316110
 20
32.653298
 30
0.0
 10
36.284757
 20
32.673405
 30
0.0
 10
36.251084
 20
32.690418
 30
0.0
 10
36.214897
 20
32.704343
 30
0.0
 10
36.176004
 20
32.715165
 30
0.0
 10
36.134210
 20
32.722900
 30
0.0
 10
36.096315
 20
32.729054
 30
0.0
 10
36.056874
 20
32.735010
 30
0.0
 10
36.015886
 20
32.740586
 30
0.0
 10
35.973352
 20
32.745585
 30
0.0
 10
35.929270
 20
32.749809
 30
0.0
 10
35.883642
 20
32.753059
 30
0.0
 10
35.836467
 20
32.755154
 30
0.0
 10
35.787746
 20
32.755896
 30
0.0
 10
35.721753
 20
32.755896
 30
0.0
 10
35.655760
 20
32.755896
 30
0.0
 10
35.589767
 20
32.755896
 30
0.0
 10
35.523773
 20
32.755896
 30
0.0
 10
35.457780
 20
32.755896
 30
0.0
 10
35.391787
 20
32.755896
 30
0.0
 10
35.325794
 20
32.755896
 30
0.0
 10
35.259801
 20
32.755896
 30
0.0
 10
35.259801
 20
32.500173
 30
0.0
 10
35.259801
 20
32.244449
 30
0.0
 10
35.259801
 20
31.988726
 30
0.0
 10
35.259801
 20
31.733002
 30
0.0
 10
35.259801
 20
31.477279
 30
0.0
 10
35.259801
 20
31.221555
 30
0.0
 10
35.259801
 20
30.965832
 30
0.0
 10
35.259801
 20
30.710108
 30
0.0
 10
35.272174
 20
30.710108
 30
0.0
 10
35.284548
 20
30.710108
 30
0.0
 10
35.296922
 20
30.710108
 30
0.0
 10
35.309296
 20
30.710108
 30
0.0
 10
35.321669
 20
30.710108
 30
0.0
 10
35.334043
 20
30.710108
 30
0.0
 10
35.346417
 20
30.710108
 30
0.0
 10
35.358790
 20
30.710108
 30
0.0
 10
35.412410
 20
30.710108
 30
0.0
 10
35.466029
 20
30.710108
 30
0.0
 10
35.519649
 20
30.710108
 30
0.0
 10
35.573268
 20
30.710108
 30
0.0
 10
35.626888
 20
30.710108
 30
0.0
 10
35.680507
 20
30.710108
 30
0.0
 10
35.734127
 20
30.710108
 30
0.0
 10
35.787746
 20
30.710108
 30
0.0
  0
LWPOLYLINE
  5
105
100
AcDbEntity
  8
logos
 62
7
100
AcDbPolyline
 90
105
 70
0
 10
40.803226
 20
32.755896
 30
0.0
 10
40.570188
 20
32.755896
 30
0.0
 10
40.337150
 20
32.755896
 30
0.0
 10
40.104111
 20
32.755896
 30
0.0
 10
39.871073
 20
32.755896
 30
0.0
 10
39.638035
 20
32.755896
 30
0.0
 10
39.404996
 20
32.755896
 30
0.0
 10
39.171958
 20
32.755896
 30
0.0
 10
38.938920
 20
32.755896
 30
0.0
 10
38.938920
 20
32.506360
 30
0.0
 10
38.938920
 20
32.256823
 30
0.0
 10
38.938920
 20
32.007286
 30
0.0
 10
38.938920
 20
31.757750
 30
0.0
 10
38.938920
 20
31.508213
 30
0.0
 10
38.938920
 20
31.258677
 30
0.0
 10
38.938920
 20
31.009140
 30
0.0
 10
38.938920
 20
30.759603
 30
0.0
 10
39.171958
 20
30.759603
 30
0.0
 10
39.404996
 20
30.759603
 30
0.0
 10
39.638035
 20
30.759603
 30
0.0
 10
39.871073
 20
30.759603
 30
0.0
 10
40.104111
 20
30.759603
 30
0.0
 10
40.337150
 20
30.759603
 30
0.0
 10
40.570188
 20
30.759603
 30
0.0
 10
40.803226
 20
30.759603
 30
0.0
 10
40.803226
 20
30.656489
 30
0.0
 10
40.803226
 20
30.553375
 30
0.0
 10
40.803226
 20
30.450260
 30
0.0
 10
40.803226
 20
30.347146
 30
0.0
 10
40.803226
 20
30.244032
 30
0.0
 10
40.803226
 20
30.140917
 30
0.0
 10
40.803226
 20
30.037803
 30
0.0
 10
40.803226
 20
29.934689
 30
0.0
 10
40.570188
 20
29.934689
 30
0.0
 10
40.337150
 20
29.934689
 30
0.0
 10
40.104111
 20
29.934689
 30
0.0
 10
39.871073
 20
29.934689
 30
0.0
 10
39.638035
 20
29.934689
 30
0.0
 10
39.404996
 20
29.934689
 30
0.0
 10
39.171958
 20
29.934689
 30
0.0
 10
38.938920
 20
29.934689
 30
0.0
 10
38.938920
 20
29.683090
 30
0.0
 10
38.938920
 20
29.431491
 30
0.0
 10
38.938920
 20
29.179892
 30
0.0
 10
38.938920
 20
28.928293
 30
0.0
 10
38.938920
 20
28.676694
 30
0.0
 10
38.938920
 20
28.425095
 30
0.0
 10
38.938920
 20
28.173496
 30
0.0
 10
38.938920
 20
27.921897
 30
0.0
 10
39.171958
 20
27.921897
 30
0.0
 10
39.404996
 20
27.921897
 30
0.0
 10
39.638035
 20
27.921897
 30
0.0
 10
39.871073
 20
27.921897
 30
0.0
 10
40.104111
 20
27.921897
 30
0.0
 10
40.337150
 20
27.921897
 30
0.0
 10
40.570188
 20
27.921897
 30
0.0
 10
40.803226
 20
27.921897
 30
0.0
 10
40.803226
 20
27.818783
 30
0.0
 10
40.803226
 20
27.715669
 30
0.0
 10
40.803226
 20
27.612554
 30
0.0
 10
40.803226
 20
27.509440
 30
0.0
 10
40.803226
 20
27.406326
 30
0.0
 10
40.803226
 20
27.303211
 30
0.0
 10
40.803226
 20
27.200097
 30
0.0
 10
40.803226
 20
27.096983
 30
0.0
 10
40.467074
 20
27.096983
 30
0.0
 10
40.130921
 20
27.096983
 30
0.0
 10
39.794768
 20
27.096983
 30
0.0
 10
39.458616
 20
27.096983
 30
0.0
 10
39.122463
 20
27.096983
 30
0.0
 10
38.786310
 20
27.096983
 30
0.0
 10
38.450158
 20
27.096983
 30
0.0
 10
38.114005
 20
27.096983
 30
0.0
 10
38.114005
 20
27.909524
 30
0.0
 10
38.114005
 20
28.722064
 30
0.0
 10
38.114005
 20
29.534605
 30
0.0
 10
38.114005
 20
30.347146
 30
0.0
 10
38.114005
 20
31.159687
 30
0.0
 10
38.114005
 20
31.972228
 30
0.0
 10
38.114005
 20
32.784768
 30
0.0
 10
38.114005
 20
33.597309
 30
0.0
 10
38.450158
 20
33.597309
 30
0.0
 10
38.786310
 20
33.597309
 30
0.0
 10
39.122463
 20
33.597309
 30
0.0
 10
39.458616
 20
33.597309
 30
0.0
 10
39.794768
 20
33.597309
 30
0.0
 10
40.130921
 20
33.597309
 30
0.0
 10
40.467074
 20
33.597309
 30
0.0
 10
40.803226
 20
33.597309
 30
0.0
 10
40.803226
 20
33.492133
 30
0.0
 10
40.803226
 20
33.386956
 30
0.0
 10
40.803226
 20
33.281779
 30
0.0
 10
40.803226
 20
33.176603
 30
0.0
 10
40.803226
 20
33.071426
 30
0.0
 10
40.803226
 20
32.966250
 30
0.0
 10
40.803226
 20
32.861073
 30
0.0
 10
40.803226
 20
32.755896
 30
0.0
 10
40.803226
 20
32.755896
 30
0.0
 10
40.803226
 20
32.755896
 30
0.0
 10
40.803226
 20
32.755896
 30
0.0
 10
40.803226
 20
32.755896
 30
0.0
 10
40.803226
 20
32.755896
 30
0.0
 10
40.803226
 20
32.755896
 30
0.0
 10
40.803226
 20
32.755896
 30
0.0
 10
40.803226
 20
32.755896
 30
0.0
  0
LWPOLYLINE
  5
106
100
AcDbEntity
  8
logos
 62
7
100
AcDbPolyline
 90
113
 70
0
 10
42.222079
 20
30.198661
 30
0.0
 10
42.222079
 20
29.808889
 30
0.0
 10
42.222079
 20
29.419117
 30
0.0
 10
42.222079
 20
29.029345
 30
0.0
 10
42.222079
 20
28.639573
 30
0.0
 10
42.222079
 20
28.249801
 30
0.0
 10
42.222079
 20
27.860029
 30
0.0
 10
42.222079
 20
27.470257
 30
0.0
 10
42.222079
 20
27.080484
 30
0.0
 10
42.118965
 20
27.080484
 30
0.0
 10
42.015851
 20
27.080484
 30
0.0
 10
41.912736
 20
27.080484
 30
0.0
 10
41.809622
 20
27.080484
 30
0.0
 10
41.706508
 20
27.080484
 30
0.0
 10
41.603393
 20
27.080484
 30
0.0
 10
41.500279
 20
27.080484
 30
0.0
 10
41.397165
 20
27.080484
 30
0.0
 10
41.397165
 20
27.893025
 30
0.0
 10
41.397165
 20
28.705566
 30
0.0
 10
41.397165
 20
29.518107
 30
0.0
 10
41.397165
 20
30.330648
 30
0.0
 10
41.397165
 20
31.143188
 30
0.0
 10
41.397165
 20
31.955729
 30
0.0
 10
41.397165
 20
32.768270
 30
0.0
 10
41.397165
 20
33.580811
 30
0.0
 10
41.487905
 20
33.580811
 30
0.0
 10
41.578646
 20
33.580811
 30
0.0
 10
41.669387
 20
33.580811
 30
0.0
 10
41.760127
 20
33.580811
 30
0.0
 10
41.850868
 20
33.580811
 30
0.0
 10
41.941608
 20
33.580811
 30
0.0
 10
42.032349
 20
33.580811
 30
0.0
 10
42.123090
 20
33.580811
 30
0.0
 10
42.288073
 20
33.007495
 30
0.0
 10
42.453055
 20
32.434180
 30
0.0
 10
42.618038
 20
31.860864
 30
0.0
 10
42.783021
 20
31.287549
 30
0.0
 10
42.948004
 20
30.714233
 30
0.0
 10
43.112987
 20
30.140917
 30
0.0
 10
43.277970
 20
29.567602
 30
0.0
 10
43.442953
 20
28.994286
 30
0.0
 10
43.605873
 20
29.567602
 30
0.0
 10
43.768794
 20
30.140917
 30
0.0
 10
43.931715
 20
30.714233
 30
0.0
 10
44.094635
 20
31.287549
 30
0.0
 10
44.257556
 20
31.860864
 30
0.0
 10
44.420477
 20
32.434180
 30
0.0
 10
44.583397
 20
33.007495
 30
0.0
 10
44.746318
 20
33.580811
 30
0.0
 10
44.837058
 20
33.580811
 30
0.0
 10
44.927799
 20
33.580811
 30
0.0
 10
45.018540
 20
33.580811
 30
0.0
 10
45.109280
 20
33.580811
 30
0.0
 10
45.200021
 20
33.580811
 30
0.0
 10
45.290761
 20
33.580811
 30
0.0
 10
45.381502
 20
33.580811
 30
0.0
 10
45.472243
 20
33.580811
 30
0.0
 10
45.472243
 20
32.768270
 30
0.0
 10
45.472243
 20
31.955729
 30
0.0
 10
45.472243
 20
31.143188
 30
0.0
 10
45.472243
 20
30.330648
 30
0.0
 10
45.472243
 20
29.518107
 30
0.0
 10
45.472243
 20
28.705566
 30
0.0
 10
45.472243
 20
27.893025
 30
0.0
 10
45.472243
 20
27.080484
 30
0.0
 10
45.369128
 20
27.080484
 30
0.0
 10
45.266014
 20
27.080484
 30
0.0
 10
45.162900
 20
27.080484
 30
0.0
 10
45.059785
 20
27.080484
 30
0.0
 10
44.956671
 20
27.080484
 30
0.0
 10
44.853557
 20
27.080484
 30
0.0
 10
44.750442
 20
27.080484
 30
0.0
 10
44.647328
 20
27.080484
 30
0.0
 10
44.647328
 20
27.470257
 30
0.0
 10
44.647328
 20
27.860029
 30
0.0
 10
44.647328
 20
28.249801
 30
0.0
 10
44.647328
 20
28.639573
 30
0.0
 10
44.647328
 20
29.029345
 30
0.0
 10
44.647328
 20
29.419117
 30
0.0
 10
44.647328
 20
29.808889
 30
0.0
 10
44.647328
 20
30.198661
 30
0.0
 10
44.533902
 20
29.808889
 30
0.0
 10
44.420477
 20
29.419117
 30
0.0
 10
44.307051
 20
29.029345
 30
0.0
 10
44.193625
 20
28.639573
 30
0.0
 10
44.080199
 20
28.249801
 30
0.0
 10
43.966774
 20
27.860029
 30
0.0
 10
43.853348
 20
27.470257
 30
0.0
 10
43.739922
 20
27.080484
 30
0.0
 10
43.661555
 20
27.080484
 30
0.0
 10
43.583188
 20
27.080484
 30
0.0
 10
43.504821
 20
27.080484
 30
0.0
 10
43.426455
 20
27.080484
 30
0.0
 10
43.348088
 20
27.080484
 30
0.0
 10
43.269721
 20
27.080484
 30
0.0
 10
43.191354
 20
27.080484
 30
0.0
 10
43.112987
 20
27.080484
 30
0.0
 10
43.001624
 20
27.470257
 30
0.0
 10
42.890260
 20
27.860029
 30
0.0
 10
42.778897
 20
28.249801
 30
0.0
 10
42.667533
 20
28.639573
 30
0.0
 10
42.556170
 20
29.029345
 30
0.0
 10
42.444806
 20
29.419117
 30
0.0
 10
42.333443
 20
29.808889
 30
0.0
 10
42.222079
 20
30.198661
 30
0.0
 10
42.222079
 20
30.198661
 30
0.0
 10
42.222079
 20
30.198661
 30
0.0
 10
42.222079
 20
30.198661
 30
0.0
 10
42.222079
 20
30.198661
 30
0.0
 10
42.222079
 20
30.198661
 30
0.0
 10
42.222079
 20
30.198661
 30
0.0
 10
42.222079
 20
30.198661
 30
0.0
 10
42.222079
 20
30.198661
 30
0.0
  0
LWPOLYLINE
  5
107
100
AcDbEntity
  8
logos
 62
7
100
AcDbPolyline
 90
65
 70
0
 10
46.973587
 20
27.080484
 30
0.0
 10
46.866348
 20
27.080484
 30
0.0
 10
46.759109
 20
27.080484
 30
0.0
 10
46.651870
 20
27.080484
 30
0.0
 10
46.544631
 20
27.080484
 30
0.0
 10
46.437393
 20
27.080484
 30
0.0
 10
46.330154
 20
27.080484
 30
0.0
 10
46.222915
 20
27.080484
 30
0.0
 10
46.115676
 20
27.080484
 30
0.0
 10
46.303344
 20
27.893025
 30
0.0
 10
46.491012
 20
28.705566
 30
0.0
 10
46.678680
 20
29.518107
 30
0.0
 10
46.866348
 20
30.330648
 30
0.0
 10
47.054016
 20
31.143188
 30
0.0
 10
47.241684
 20
31.955729
 30
0.0
 10
47.429352
 20
32.768270
 30
0.0
 10
47.617020
 20
33.580811
 30
0.0
 10
47.699512
 20
33.580811
 30
0.0
 10
47.782003
 20
33.580811
 30
0.0
 10
47.864495
 20
33.580811
 30
0.0
 10
47.946986
 20
33.580811
 30
0.0
 10
48.029478
 20
33.580811
 30
0.0
 10
48.111969
 20
33.580811
 30
0.0
 10
48.194461
 20
33.580811
 30
0.0
 10
48.276952
 20
33.580811
 30
0.0
 10
48.466682
 20
32.768270
 30
0.0
 10
48.656413
 20
31.955729
 30
0.0
 10
48.846143
 20
31.143188
 30
0.0
 10
49.035873
 20
30.330648
 30
0.0
 10
49.225604
 20
29.518107
 30
0.0
 10
49.415334
 20
28.705566
 30
0.0
 10
49.605064
 20
27.893025
 30
0.0
 10
49.794795
 20
27.080484
 30
0.0
 10
49.687556
 20
27.080484
 30
0.0
 10
49.580317
 20
27.080484
 30
0.0
 10
49.473078
 20
27.080484
 30
0.0
 10
49.365839
 20
27.080484
 30
0.0
 10
49.258600
 20
27.080484
 30
0.0
 10
49.151361
 20
27.080484
 30
0.0
 10
49.044123
 20
27.080484
 30
0.0
 10
48.936884
 20
27.080484
 30
0.0
 10
48.885326
 20
27.307336
 30
0.0
 10
48.833769
 20
27.534187
 30
0.0
 10
48.782212
 20
27.761039
 30
0.0
 10
48.730655
 20
27.987890
 30
0.0
 10
48.679098
 20
28.214742
 30
0.0
 10
48.627541
 20
28.441593
 30
0.0
 10
48.575984
 20
28.668445
 30
0.0
 10
48.524426
 20
28.895296
 30
0.0
 10
48.384191
 20
28.895296
 30
0.0
 10
48.243955
 20
28.895296
 30
0.0
 10
48.103720
 20
28.895296
 30
0.0
 10
47.963484
 20
28.895296
 30
0.0
 10
47.823249
 20
28.895296
 30
0.0
 10
47.683014
 20
28.895296
 30
0.0
 10
47.542778
 20
28.895296
 30
0.0
 10
47.402543
 20
28.895296
 30
0.0
 10
47.348923
 20
28.668445
 30
0.0
 10
47.295304
 20
28.441593
 30
0.0
 10
47.241684
 20
28.214742
 30
0.0
 10
47.188065
 20
27.987890
 30
0.0
 10
47.134445
 20
27.761039
 30
0.0
 10
47.080826
 20
27.534187
 30
0.0
 10
47.027206
 20
27.307336
 30
0.0
 10
46.973587
 20
27.080484
 30
0.0
  0
LWPOLYLINE
  5
108
100
AcDbEntity
  8
logos
 62
7
100
AcDbPolyline
 90
25
 70
0
 10
47.963484
 20
31.320545
 30
0.0
 10
47.918114
 20
31.120503
 30
0.0
 10
47.872744
 20
30.920462
 30
0.0
 10
47.827374
 20
30.720420
 30
0.0
 10
47.782003
 20
30.520378
 30
0.0
 10
47.736633
 20
30.320336
 30
0.0
 10
47.691263
 20
30.120294
 30
0.0
 10
47.645892
 20
29.920253
 30
0.0
 10
47.600522
 20
29.720211
 30
0.0
 10
47.693325
 20
29.720211
 30
0.0
 10
47.786128
 20
29.720211
 30
0.0
 10
47.878931
 20
29.720211
 30
0.0
 10
47.971734
 20
29.720211
 30
0.0
 10
48.064537
 20
29.720211
 30
0.0
 10
48.157339
 20
29.720211
 30
0.0
 10
48.250142
 20
29.720211
 30
0.0
 10
48.342945
 20
29.720211
 30
0.0
 10
48.295513
 20
29.920253
 30
0.0
 10
48.248080
 20
30.120294
 30
0.0
 10
48.200647
 20
30.320336
 30
0.0
 10
48.153215
 20
30.520378
 30
0.0
 10
48.105782
 20
30.720420
 30
0.0
 10
48.058350
 20
30.920462
 30
0.0
 10
48.010917
 20
31.120503
 30
0.0
 10
47.963484
 20
31.320545
 30
0.0
  0
LWPOLYLINE
  5
109
100
AcDbEntity
  8
logos
 62
7
100
AcDbPolyline
 90
89
 70
0
 10
50.817689
 20
31.023576
 30
0.0
 10
50.817689
 20
30.530689
 30
0.0
 10
50.817689
 20
30.037803
 30
0.0
 10
50.817689
 20
29.544917
 30
0.0
 10
50.817689
 20
29.052030
 30
0.0
 10
50.817689
 20
28.559144
 30
0.0
 10
50.817689
 20
28.066257
 30
0.0
 10
50.817689
 20
27.573371
 30
0.0
 10
50.817689
 20
27.080484
 30
0.0
 10
50.714574
 20
27.080484
 30
0.0
 10
50.611460
 20
27.080484
 30
0.0
 10
50.508346
 20
27.080484
 30
0.0
 10
50.405231
 20
27.080484
 30
0.0
 10
50.302117
 20
27.080484
 30
0.0
 10
50.199003
 20
27.080484
 30
0.0
 10
50.095889
 20
27.080484
 30
0.0
 10
49.992774
 20
27.080484
 30
0.0
 10
49.992774
 20
27.893025
 30
0.0
 10
49.992774
 20
28.705566
 30
0.0
 10
49.992774
 20
29.518107
 30
0.0
 10
49.992774
 20
30.330648
 30
0.0
 10
49.992774
 20
31.143188
 30
0.0
 10
49.992774
 20
31.955729
 30
0.0
 10
49.992774
 20
32.768270
 30
0.0
 10
49.992774
 20
33.580811
 30
0.0
 10
50.079390
 20
33.580811
 30
0.0
 10
50.166006
 20
33.580811
 30
0.0
 10
50.252622
 20
33.580811
 30
0.0
 10
50.339238
 20
33.580811
 30
0.0
 10
50.425854
 20
33.580811
 30
0.0
 10
50.512470
 20
33.580811
 30
0.0
 10
50.599086
 20
33.580811
 30
0.0
 10
50.685702
 20
33.580811
 30
0.0
 10
50.883682
 20
33.087925
 30
0.0
 10
51.081661
 20
32.595038
 30
0.0
 10
51.279641
 20
32.102152
 30
0.0
 10
51.477620
 20
31.609265
 30
0.0
 10
51.675600
 20
31.116379
 30
0.0
 10
51.873579
 20
30.623492
 30
0.0
 10
52.071559
 20
30.130606
 30
0.0
 10
52.269538
 20
29.637719
 30
0.0
 10
52.269538
 20
30.130606
 30
0.0
 10
52.269538
 20
30.623492
 30
0.0
 10
52.269538
 20
31.116379
 30
0.0
 10
52.269538
 20
31.609265
 30
0.0
 10
52.269538
 20
32.102152
 30
0.0
 10
52.269538
 20
32.595038
 30
0.0
 10
52.269538
 20
33.087925
 30
0.0
 10
52.269538
 20
33.580811
 30
0.0
 10
52.374715
 20
33.580811
 30
0.0
 10
52.479892
 20
33.580811
 30
0.0
 10
52.585068
 20
33.580811
 30
0.0
 10
52.690245
 20
33.580811
 30
0.0
 10
52.795421
 20
33.580811
 30
0.0
 10
52.900598
 20
33.580811
 30
0.0
 10
53.005775
 20
33.580811
 30
0.0
 10
53.110951
 20
33.580811
 30
0.0
 10
53.110951
 20
32.768270
 30
0.0
 10
53.110951
 20
31.955729
 30
0.0
 10
53.110951
 20
31.143188
 30
0.0
 10
53.110951
 20
30.330648
 30
0.0
 10
53.110951
 20
29.518107
 30
0.0
 10
53.110951
 20
28.705566
 30
0.0
 10
53.110951
 20
27.893025
 30
0.0
 10
53.110951
 20
27.080484
 30
0.0
 10
53.022273
 20
27.080484
 30
0.0
 10
52.933595
 20
27.080484
 30
0.0
 10
52.844916
 20
27.080484
 30
0.0
 10
52.756238
 20
27.080484
 30
0.0
 10
52.667560
 20
27.080484
 30
0.0
 10
52.578881
 20
27.080484
 30
0.0
 10
52.490203
 20
27.080484
 30
0.0
 10
52.401525
 20
27.080484
 30
0.0
 10
52.203545
 20
27.573371
 30
0.0
 10
52.005566
 20
28.066257
 30
0.0
 10
51.807586
 20
28.559144
 30
0.0
 10
51.609607
 20
29.052030
 30
0.0
 10
51.411627
 20
29.544917
 30
0.0
 10
51.213648
 20
30.037803
 30
0.0
 10
51.015668
 20
30.530689
 30
0.0
 10
50.817689
 20
31.023576
 30
0.0
 10
50.817689
 20
31.023576
 30
0.0
 10
50.817689
 20
31.023576
 30
0.0
 10
50.817689
 20
31.023576
 30
0.0
 10
50.817689
 20
31.023576
 30
0.0
 10
50.817689
 20
31.023576
 30
0.0
 10
50.817689
 20
31.023576
 30
0.0
 10
50.817689
 20
31.023576
 30
0.0
 10
50.817689
 20
31.023576
 30
0.0
  0
ENDSEC
  0
SECTION
  2
OBJECTS
  0
DICTIONARY
  5
C
330
0
100
AcDbDictionary
  3
ACAD_GROUP
350
D
  3
ACAD_MLINESTYLE
350
17
  0
DICTIONARY
  5
D
330
C
100
AcDbDictionary
  0
DICTIONARY
  5
1A
330
C
100
AcDbDictionary
  0
DICTIONARY
  5
17
330
C
100
AcDbDictionary
  3
STANDARD
350
18
  0
DICTIONARY
  5
19
330
C
100
AcDbDictionary
  0
ENDSEC
  0
EOF
