  0
SECTION
  2
HEADER
  9
$ACADVER
  1
AC1014
  9
$HANDSEED
  5
FFFF
  9
$MEASUREMENT
 70
     1
  0
ENDSEC
  0
SECTION
  2
TABLES
  0
TABLE
  2
VPORT
  5
8
330
0
100
AcDbSymbolTable
 70
     4
  0
VPORT
  5
2E
330
8
100
AcDbSymbolTableRecord
100
AcDbViewportTableRecord
  2
*ACTIVE
 70
     0
 10
0.0
 20
0.0
 11
1.0
 21
1.0
 12
210.0
 22
148.5
 13
0.0
 23
0.0
 14
10.0
 24
10.0
 15
10.0
 25
10.0
 16
0.0
 26
0.0
 36
1.0
 17
0.0
 27
0.0
 37
0.0
 40
341.0
 41
1.24
 42
50.0
 43
0.0
 44
0.0
 50
0.0
 51
0.0
 71
     0
 72
   100
 73
     1
 74
     3
 75
     0
 76
     0
 77
     0
 78
     0
  0
ENDTAB
  0
TABLE
  2
LTYPE
  5
5
330
0
100
AcDbSymbolTable
 70
     1
  0
LTYPE
  5
14
330
5
100
AcDbSymbolTableRecord
100
AcDbLinetypeTableRecord
  2
BYBLOCK
 70
     0
  3

 72
    65
 73
     0
 40
0.0
  0
LTYPE
  5
15
330
5
100
AcDbSymbolTableRecord
100
AcDbLinetypeTableRecord
  2
BYLAYER
 70
     0
  3

 72
    65
 73
     0
 40
0.0
  0
LTYPE
  5
16
330
5
100
AcDbSymbolTableRecord
100
AcDbLinetypeTableRecord
  2
CONTINUOUS
 70
     0
  3
Solid line
 72
    65
 73
     0
 40
0.0
  0
ENDTAB
  0
TABLE
  2
LAYER
  5
2
100
AcDbSymbolTable
 70
3
  0
LAYER
  5
50
100
AcDbSymbolTableRecord
100
AcDbLayerTableRecord
  2
0
 70
0
  6
CONTINUOUS
  0
LAYER
  5
51
100
AcDbSymbolTableRecord
100
AcDbLayerTableRecord
  2
Artwork
 70
0
  6
CONTINUOUS
  0
LAYER
  5
52
100
AcDbSymbolTableRecord
100
AcDbLayerTableRecord
  2
logos
 70
0
  6
CONTINUOUS
  0
ENDTAB
  0
TABLE
  2
STYLE
  5
3
330
0
100
AcDbSymbolTable
 70
     1
  0
STYLE
  5
11
330
3
100
AcDbSymbolTableRecord
100
AcDbTextStyleTableRecord
  2
STANDARD
 70
     0
 40
0.0
 41
1.0
 50
0.0
 71
     0
 42
2.5
  3
txt
  4

  0
ENDTAB
  0
TABLE
  2
VIEW
  5
6
330
0
100
AcDbSymbolTable
 70
     0
  0
ENDTAB
  0
TABLE
  2
UCS
  5
7
330
0
100
AcDbSymbolTable
 70
     0
  0
ENDTAB
  0
TABLE
  2
APPID
  5
9
330
0
100
AcDbSymbolTable
 70
     2
  0
APPID
  5
12
330
9
100
AcDbSymbolTableRecord
100
AcDbRegAppTableRecord
  2
ACAD
 70
     0
  0
ENDTAB
  0
TABLE
  2
DIMSTYLE
  5
A
330
0
100
AcDbSymbolTable
 70
     1
  0
DIMSTYLE
105
27
330
A
100
AcDbSymbolTableRecord
100
AcDbDimStyleTableRecord
  2
ISO-25
 70
     0
  3

  4

  5

  6

  7

 40
1.0
 41
2.5
 42
0.625
 43
3.75
 44
1.25
 45
0.0
 46
0.0
 47
0.0
 48
0.0
140
2.5
141
2.5
142
0.0
143
0.03937007874016
144
1.0
145
0.0
146
1.0
147
0.625
 71
     0
 72
     0
 73
     0
 74
     0
 75
     0
 76
     0
 77
     1
 78
     8
170
     0
171
     3
172
     1
173
     0
174
     0
175
     0
176
     0
177
     0
178
     0
270
     2
271
     2
272
     2
273
     2
274
     3
340
11
275
     0
280
     0
281
     0
282
     0
283
     0
284
     8
285
     0
286
     0
287
     3
288
     0
  0
ENDTAB
  0
TABLE
  2
BLOCK_RECORD
  5
1
330
0
100
AcDbSymbolTable
 70
     1
  0
BLOCK_RECORD
  5
1F
330
1
100
AcDbSymbolTableRecord
100
AcDbBlockTableRecord
  2
*MODEL_SPACE
  0
BLOCK_RECORD
  5
1B
330
1
100
AcDbSymbolTableRecord
100
AcDbBlockTableRecord
  2
*PAPER_SPACE
  0
ENDTAB
  0
ENDSEC
  0
SECTION
  2
BLOCKS
  0
BLOCK
  5
20
330
1F
100
AcDbEntity
  8
0
100
AcDbBlockBegin
  2
*MODEL_SPACE
 70
     0
 10
0.0
 20
0.0
 30
0.0
  3
*MODEL_SPACE
  1

  0
ENDBLK
  5
21
330
1F
100
AcDbEntity
  8
0
100
AcDbBlockEnd
  0
BLOCK
  5
1C
330
1B
100
AcDbEntity
 67
     1
  8
0
100
AcDbBlockBegin
  2
*PAPER_SPACE
  1

  0
ENDBLK
  5
1D
330
1B
100
AcDbEntity
 67
     1
  8
0
100
AcDbBlockEnd
  0
ENDSEC
  0
SECTION
  2
ENTITIES
  0
LWPOLYLINE
  5
100
100
AcDbEntity
  8
logos
 62
7
100
AcDbPolyline
 90
193
 70
0
 10
51.818528
 20
31.303324
 30
0.0
 10
51.804756
 20
31.302929
 30
0.0
 10
51.790645
 20
31.301461
 30
0.0
 10
51.776364
 20
31.298780
 30
0.0
 10
51.762112
 20
31.294761
 30
0.0
 10
51.748057
 20
31.289258
 30
0.0
 10
51.734398
 20
31.282132
 30
0.0
 10
51.721331
 20
31.273244
 30
0.0
 10
51.709054
 20
31.262461
 30
0.0
 10
51.698217
 20
31.250181
 30
0.0
 10
51.689270
 20
31.237112
 30
0.0
 10
51.682074
 20
31.223438
 30
0.0
 10
51.676514
 20
31.209347
 30
0.0
 10
51.672450
 20
31.195024
 30
0.0
 10
51.669628
 20
31.180659
 30
0.0
 10
51.668217
 20
31.166437
 30
0.0
 10
51.667934
 20
31.152547
 30
0.0
 10
51.668499
 20
31.139282
 30
0.0
 10
51.670474
 20
31.126495
 30
0.0
 10
51.673551
 20
31.114249
 30
0.0
 10
51.677558
 20
31.102607
 30
0.0
 10
51.682356
 20
31.091632
 30
0.0
 10
51.687775
 20
31.081387
 30
0.0
 10
51.693645
 20
31.071938
 30
0.0
 10
51.699797
 20
31.063350
 30
0.0
 10
51.699868
 20
31.063280
 30
0.0
 10
51.699938
 20
31.063209
 30
0.0
 10
51.700009
 20
31.063139
 30
0.0
 10
51.700079
 20
31.063068
 30
0.0
 10
51.700150
 20
31.062997
 30
0.0
 10
51.700221
 20
31.062927
 30
0.0
 10
51.700291
 20
31.062856
 30
0.0
 10
51.700362
 20
31.062786
 30
0.0
 10
51.830658
 20
30.895299
 30
0.0
 10
51.960954
 20
30.727813
 30
0.0
 10
52.091254
 20
30.560326
 30
0.0
 10
52.221550
 20
30.392840
 30
0.0
 10
52.351846
 20
30.225353
 30
0.0
 10
52.482143
 20
30.057867
 30
0.0
 10
52.612442
 20
29.890380
 30
0.0
 10
52.742738
 20
29.722893
 30
0.0
 10
52.742738
 20
29.556866
 30
0.0
 10
52.742738
 20
29.390838
 30
0.0
 10
52.742738
 20
29.224810
 30
0.0
 10
52.742738
 20
29.058782
 30
0.0
 10
52.742738
 20
28.892754
 30
0.0
 10
52.742738
 20
28.726727
 30
0.0
 10
52.742738
 20
28.560699
 30
0.0
 10
52.742738
 20
28.394671
 30
0.0
 10
52.743020
 20
28.381023
 30
0.0
 10
52.744432
 20
28.367039
 30
0.0
 10
52.746972
 20
28.352905
 30
0.0
 10
52.750979
 20
28.338805
 30
0.0
 10
52.756482
 20
28.324923
 30
0.0
 10
52.763566
 20
28.311444
 30
0.0
 10
52.772400
 20
28.298555
 30
0.0
 10
52.783096
 20
28.286439
 30
0.0
 10
52.795260
 20
28.275785
 30
0.0
 10
52.808186
 20
28.267002
 30
0.0
 10
52.821676
 20
28.259955
 30
0.0
 10
52.835561
 20
28.254511
 30
0.0
 10
52.849672
 20
28.250534
 30
0.0
 10
52.863783
 20
28.247882
 30
0.0
 10
52.877725
 20
28.246442
 30
0.0
 10
52.891328
 20
28.246047
 30
0.0
 10
52.904931
 20
28.246414
 30
0.0
 10
52.918873
 20
28.247853
 30
0.0
 10
52.932956
 20
28.250478
 30
0.0
 10
52.947011
 20
28.254443
 30
0.0
 10
52.960868
 20
28.259882
 30
0.0
 10
52.974330
 20
28.266929
 30
0.0
 10
52.987227
 20
28.275726
 30
0.0
 10
52.999363
 20
28.286405
 30
0.0
 10
53.010059
 20
28.298549
 30
0.0
 10
53.018864
 20
28.311463
 30
0.0
 10
53.025920
 20
28.324962
 30
0.0
 10
53.031367
 20
28.338856
 30
0.0
 10
53.035346
 20
28.352959
 30
0.0
 10
53.037886
 20
28.367081
 30
0.0
 10
53.039297
 20
28.381037
 30
0.0
 10
53.039580
 20
28.394637
 30
0.0
 10
53.039580
 20
28.560665
 30
0.0
 10
53.039580
 20
28.726693
 30
0.0
 10
53.039580
 20
28.892720
 30
0.0
 10
53.039580
 20
29.058748
 30
0.0
 10
53.039580
 20
29.224776
 30
0.0
 10
53.039580
 20
29.390804
 30
0.0
 10
53.039580
 20
29.556832
 30
0.0
 10
53.039580
 20
29.722860
 30
0.0
 10
53.169532
 20
29.890269
 30
0.0
 10
53.299481
 20
30.057679
 30
0.0
 10
53.429433
 20
30.225088
 30
0.0
 10
53.559385
 20
30.392498
 30
0.0
 10
53.689337
 20
30.559908
 30
0.0
 10
53.819286
 20
30.727317
 30
0.0
 10
53.949238
 20
30.894727
 30
0.0
 10
54.079190
 20
31.062137
 30
0.0
 10
54.085964
 20
31.071151
 30
0.0
 10
54.092257
 20
31.081043
 30
0.0
 10
54.097930
 20
31.091699
 30
0.0
 10
54.102840
 20
31.103008
 30
0.0
 10
54.106876
 20
31.114859
 30
0.0
 10
54.109868
 20
31.127141
 30
0.0
 10
54.111561
 20
31.139745
 30
0.0
 10
54.112126
 20
31.152555
 30
0.0
 10
54.111993
 20
31.159613
 30
0.0
 10
54.111711
 20
31.166694
 30
0.0
 10
54.111146
 20
31.173792
 30
0.0
 10
54.110300
 20
31.180907
 30
0.0
 10
54.109171
 20
31.188039
 30
0.0
 10
54.107760
 20
31.195185
 30
0.0
 10
54.105784
 20
31.202342
 30
0.0
 10
54.103526
 20
31.209510
 30
0.0
 10
54.099547
 20
31.220212
 30
0.0
 10
54.094467
 20
31.230759
 30
0.0
 10
54.088371
 20
31.241001
 30
0.0
 10
54.081344
 20
31.250788
 30
0.0
 10
54.073441
 20
31.259974
 30
0.0
 10
54.064749
 20
31.268410
 30
0.0
 10
54.055351
 20
31.275945
 30
0.0
 10
54.045304
 20
31.282431
 30
0.0
 10
54.034918
 20
31.287960
 30
0.0
 10
54.024419
 20
31.292495
 30
0.0
 10
54.013808
 20
31.296116
 30
0.0
 10
54.003168
 20
31.298910
 30
0.0
 10
53.992500
 20
31.300942
 30
0.0
 10
53.981860
 20
31.302296
 30
0.0
 10
53.971305
 20
31.303058
 30
0.0
 10
53.960863
 20
31.303310
 30
0.0
 10
53.952566
 20
31.303107
 30
0.0
 10
53.944155
 20
31.302401
 30
0.0
 10
53.935717
 20
31.301188
 30
0.0
 10
53.927307
 20
31.299466
 30
0.0
 10
53.918953
 20
31.297237
 30
0.0
 10
53.910712
 20
31.294471
 30
0.0
 10
53.902612
 20
31.291172
 30
0.0
 10
53.894710
 20
31.287328
 30
0.0
 10
53.887259
 20
31.283131
 30
0.0
 10
53.880119
 20
31.278500
 30
0.0
 10
53.873289
 20
31.273474
 30
0.0
 10
53.866770
 20
31.268089
 30
0.0
 10
53.860589
 20
31.262385
 30
0.0
 10
53.854747
 20
31.256399
 30
0.0
 10
53.849244
 20
31.250168
 30
0.0
 10
53.844079
 20
31.243730
 30
0.0
 10
53.724739
 20
31.090464
 30
0.0
 10
53.605401
 20
30.937197
 30
0.0
 10
53.486061
 20
30.783930
 30
0.0
 10
53.366720
 20
30.630663
 30
0.0
 10
53.247383
 20
30.477396
 30
0.0
 10
53.128042
 20
30.324130
 30
0.0
 10
53.008704
 20
30.170863
 30
0.0
 10
52.889364
 20
30.017596
 30
0.0
 10
52.769927
 20
30.170729
 30
0.0
 10
52.650491
 20
30.323862
 30
0.0
 10
52.531057
 20
30.476994
 30
0.0
 10
52.411621
 20
30.630127
 30
0.0
 10
52.292185
 20
30.783260
 30
0.0
 10
52.172748
 20
30.936393
 30
0.0
 10
52.053314
 20
31.089525
 30
0.0
 10
51.933878
 20
31.242658
 30
0.0
 10
51.933864
 20
31.242623
 30
0.0
 10
51.933853
 20
31.242587
 30
0.0
 10
51.933839
 20
31.242552
 30
0.0
 10
51.933824
 20
31.242517
 30
0.0
 10
51.933813
 20
31.242481
 30
0.0
 10
51.933799
 20
31.242446
 30
0.0
 10
51.933788
 20
31.242411
 30
0.0
 10
51.933774
 20
31.242376
 30
0.0
 10
51.929004
 20
31.248661
 30
0.0
 10
51.923896
 20
31.254771
 30
0.0
 10
51.918449
 20
31.260672
 30
0.0
 10
51.912663
 20
31.266328
 30
0.0
 10
51.906539
 20
31.271707
 30
0.0
 10
51.900048
 20
31.276773
 30
0.0
 10
51.893218
 20
31.281489
 30
0.0
 10
51.886022
 20
31.285821
 30
0.0
 10
51.878035
 20
31.289972
 30
0.0
 10
51.869794
 20
31.293559
 30
0.0
 10
51.861327
 20
31.296585
 30
0.0
 10
51.852719
 20
31.299040
 30
0.0
 10
51.843999
 20
31.300931
 30
0.0
 10
51.835250
 20
31.302286
 30
0.0
 10
51.826501
 20
31.303076
 30
0.0
 10
51.817837
 20
31.303310
 30
0.0
 10
51.817837
 20
31.303302
 30
0.0
 10
51.817837
 20
31.303293
 30
0.0
 10
51.817837
 20
31.303284
 30
0.0
 10
51.817834
 20
31.303275
 30
0.0
 10
51.817834
 20
31.303266
 30
0.0
 10
51.817834
 20
31.303257
 30
0.0
 10
51.817834
 20
31.303249
 30
0.0
 10
51.818398
 20
31.303324
 30
0.0
  0
LWPOLYLINE
  5
101
100
AcDbEntity
  8
logos
 62
7
100
AcDbPolyline
 90
193
 70
0
 10
25.753311
 20
31.301630
 30
0.0
 10
25.739660
 20
31.301235
 30
0.0
 10
25.725665
 20
31.299768
 30
0.0
 10
25.711514
 20
31.297087
 30
0.0
 10
25.697400
 20
31.293054
 30
0.0
 10
25.683512
 20
31.287553
 30
0.0
 10
25.670036
 20
31.280458
 30
0.0
 10
25.657164
 20
31.271639
 30
0.0
 10
25.645082
 20
31.260971
 30
0.0
 10
25.634442
 20
31.248860
 30
0.0
 10
25.625651
 20
31.235963
 30
0.0
 10
25.618581
 20
31.222467
 30
0.0
 10
25.613103
 20
31.208559
 30
0.0
 10
25.609090
 20
31.194428
 30
0.0
 10
25.606409
 20
31.180264
 30
0.0
 10
25.604942
 20
31.166254
 30
0.0
 10
25.604546
 20
31.152589
 30
0.0
 10
25.604546
 20
30.807849
 30
0.0
 10
25.604546
 20
30.463109
 30
0.0
 10
25.604546
 20
30.118369
 30
0.0
 10
25.604546
 20
29.773628
 30
0.0
 10
25.604546
 20
29.428888
 30
0.0
 10
25.604546
 20
29.084148
 30
0.0
 10
25.604546
 20
28.739408
 30
0.0
 10
25.604546
 20
28.394668
 30
0.0
 10
25.604942
 20
28.381006
 30
0.0
 10
25.606409
 20
28.367008
 30
0.0
 10
25.609090
 20
28.352863
 30
0.0
 10
25.613115
 20
28.338757
 30
0.0
 10
25.618612
 20
28.324875
 30
0.0
 10
25.625713
 20
28.311404
 30
0.0
 10
25.634547
 20
28.298529
 30
0.0
 10
25.645240
 20
28.286439
 30
0.0
 10
25.657367
 20
28.275793
 30
0.0
 10
25.670262
 20
28.267016
 30
0.0
 10
25.683735
 20
28.259969
 30
0.0
 10
25.697604
 20
28.254522
 30
0.0
 10
25.711681
 20
28.250540
 30
0.0
 10
25.725784
 20
28.247887
 30
0.0
 10
25.739722
 20
28.246448
 30
0.0
 10
25.753314
 20
28.246053
 30
0.0
 10
25.760144
 20
28.246173
 30
0.0
 10
25.767002
 20
28.246512
 30
0.0
 10
25.773888
 20
28.247104
 30
0.0
 10
25.780803
 20
28.247951
 30
0.0
 10
25.787745
 20
28.249080
 30
0.0
 10
25.794713
 20
28.250491
 30
0.0
 10
25.801710
 20
28.252241
 30
0.0
 10
25.808731
 20
28.254329
 30
0.0
 10
25.819176
 20
28.258156
 30
0.0
 10
25.829503
 20
28.263050
 30
0.0
 10
25.839559
 20
28.268945
 30
0.0
 10
25.849196
 20
28.275775
 30
0.0
 10
25.858267
 20
28.283474
 30
0.0
 10
25.866621
 20
28.291978
 30
0.0
 10
25.874105
 20
28.301218
 30
0.0
 10
25.880574
 20
28.311129
 30
0.0
 10
25.886089
 20
28.321396
 30
0.0
 10
25.890618
 20
28.331785
 30
0.0
 10
25.894239
 20
28.342253
 30
0.0
 10
25.897033
 20
28.352760
 30
0.0
 10
25.899065
 20
28.363264
 30
0.0
 10
25.900420
 20
28.373723
 30
0.0
 10
25.901182
 20
28.384095
 30
0.0
 10
25.901431
 20
28.394337
 30
0.0
 10
25.901431
 20
28.547911
 30
0.0
 10
25.901431
 20
28.701485
 30
0.0
 10
25.901431
 20
28.855059
 30
0.0
 10
25.901431
 20
29.008633
 30
0.0
 10
25.901431
 20
29.162207
 30
0.0
 10
25.901431
 20
29.315781
 30
0.0
 10
25.901431
 20
29.469355
 30
0.0
 10
25.901431
 20
29.622929
 30
0.0
 10
26.036161
 20
29.622929
 30
0.0
 10
26.170891
 20
29.622929
 30
0.0
 10
26.305621
 20
29.622929
 30
0.0
 10
26.440351
 20
29.622929
 30
0.0
 10
26.575081
 20
29.622929
 30
0.0
 10
26.709811
 20
29.622929
 30
0.0
 10
26.844541
 20
29.622929
 30
0.0
 10
26.979270
 20
29.622929
 30
0.0
 10
26.992995
 20
29.623324
 30
0.0
 10
27.007081
 20
29.624848
 30
0.0
 10
27.021327
 20
29.627586
 30
0.0
 10
27.035534
 20
29.631695
 30
0.0
 10
27.049501
 20
29.637286
 30
0.0
 10
27.063028
 20
29.644485
 30
0.0
 10
27.075915
 20
29.653418
 30
0.0
 10
27.087960
 20
29.664207
 30
0.0
 10
27.098521
 20
29.676416
 30
0.0
 10
27.107227
 20
29.689364
 30
0.0
 10
27.114215
 20
29.702877
 30
0.0
 10
27.119617
 20
29.716777
 30
0.0
 10
27.123565
 20
29.730890
 30
0.0
 10
27.126190
 20
29.745041
 30
0.0
 10
27.127629
 20
29.759051
 30
0.0
 10
27.128024
 20
29.772747
 30
0.0
 10
27.127902
 20
29.779684
 30
0.0
 10
27.127563
 20
29.786652
 30
0.0
 10
27.126971
 20
29.793648
 30
0.0
 10
27.126096
 20
29.800670
 30
0.0
 10
27.124939
 20
29.807711
 30
0.0
 10
27.123471
 20
29.814773
 30
0.0
 10
27.121693
 20
29.821848
 30
0.0
 10
27.119576
 20
29.828934
 30
0.0
 10
27.115716
 20
29.839475
 30
0.0
 10
27.110774
 20
29.849875
 30
0.0
 10
27.104819
 20
29.859987
 30
0.0
 10
27.097921
 20
29.869665
 30
0.0
 10
27.090152
 20
29.878761
 30
0.0
 10
27.081581
 20
29.887129
 30
0.0
 10
27.072279
 20
29.894622
 30
0.0
 10
27.062313
 20
29.901093
 30
0.0
 10
27.052041
 20
29.906622
 30
0.0
 10
27.041660
 20
29.911157
 30
0.0
 10
27.031210
 20
29.914778
 30
0.0
 10
27.020728
 20
29.917572
 30
0.0
 10
27.010255
 20
29.919604
 30
0.0
 10
26.999827
 20
29.920959
 30
0.0
 10
26.989483
 20
29.921721
 30
0.0
 10
26.979261
 20
29.921972
 30
0.0
 10
26.844531
 20
29.921972
 30
0.0
 10
26.709801
 20
29.921972
 30
0.0
 10
26.575071
 20
29.921972
 30
0.0
 10
26.440341
 20
29.921972
 30
0.0
 10
26.305611
 20
29.921972
 30
0.0
 10
26.170882
 20
29.921972
 30
0.0
 10
26.036152
 20
29.921972
 30
0.0
 10
25.901422
 20
29.921972
 30
0.0
 10
25.901422
 20
30.057009
 30
0.0
 10
25.901422
 20
30.192046
 30
0.0
 10
25.901422
 20
30.327082
 30
0.0
 10
25.901422
 20
30.462119
 30
0.0
 10
25.901422
 20
30.597155
 30
0.0
 10
25.901422
 20
30.732192
 30
0.0
 10
25.901422
 20
30.867229
 30
0.0
 10
25.901422
 20
31.002265
 30
0.0
 10
26.074435
 20
31.002265
 30
0.0
 10
26.247448
 20
31.002265
 30
0.0
 10
26.420461
 20
31.002265
 30
0.0
 10
26.593473
 20
31.002265
 30
0.0
 10
26.766486
 20
31.002265
 30
0.0
 10
26.939499
 20
31.002265
 30
0.0
 10
27.112512
 20
31.002265
 30
0.0
 10
27.285525
 20
31.002265
 30
0.0
 10
27.299244
 20
31.002660
 30
0.0
 10
27.313310
 20
31.004156
 30
0.0
 10
27.327531
 20
31.006865
 30
0.0
 10
27.341716
 20
31.010929
 30
0.0
 10
27.355669
 20
31.016472
 30
0.0
 10
27.369199
 20
31.023621
 30
0.0
 10
27.382110
 20
31.032505
 30
0.0
 10
27.394212
 20
31.043252
 30
0.0
 10
27.404846
 20
31.055439
 30
0.0
 10
27.413617
 20
31.068390
 30
0.0
 10
27.420659
 20
31.081920
 30
0.0
 10
27.426103
 20
31.095844
 30
0.0
 10
27.430085
 20
31.109978
 30
0.0
 10
27.432738
 20
31.124137
 30
0.0
 10
27.434206
 20
31.138135
 30
0.0
 10
27.434601
 20
31.151786
 30
0.0
 10
27.434206
 20
31.165463
 30
0.0
 10
27.432766
 20
31.179475
 30
0.0
 10
27.430142
 20
31.193643
 30
0.0
 10
27.426193
 20
31.207785
 30
0.0
 10
27.420780
 20
31.221721
 30
0.0
 10
27.413767
 20
31.235268
 30
0.0
 10
27.405013
 20
31.248244
 30
0.0
 10
27.394376
 20
31.260470
 30
0.0
 10
27.382263
 20
31.271265
 30
0.0
 10
27.369331
 20
31.280186
 30
0.0
 10
27.355776
 20
31.287363
 30
0.0
 10
27.341795
 20
31.292926
 30
0.0
 10
27.327582
 20
31.297001
 30
0.0
 10
27.313335
 20
31.299710
 30
0.0
 10
27.299253
 20
31.301206
 30
0.0
 10
27.285528
 20
31.301601
 30
0.0
 10
27.093997
 20
31.301601
 30
0.0
 10
26.902466
 20
31.301601
 30
0.0
 10
26.710935
 20
31.301601
 30
0.0
 10
26.519405
 20
31.301601
 30
0.0
 10
26.327874
 20
31.301601
 30
0.0
 10
26.136343
 20
31.301601
 30
0.0
 10
25.944812
 20
31.301601
 30
0.0
 10
25.753281
 20
31.301601
 30
0.0
 10
25.753281
 20
31.301603
 30
0.0
 10
25.753280
 20
31.301605
 30
0.0
 10
25.753279
 20
31.301607
 30
0.0
 10
25.753278
 20
31.301608
 30
0.0
 10
25.753278
 20
31.301610
 30
0.0
 10
25.753277
 20
31.301612
 30
0.0
 10
25.753276
 20
31.301614
 30
0.0
 10
25.753311
 20
31.301630
 30
0.0
  0
LWPOLYLINE
  5
102
100
AcDbEntity
  8
logos
 62
7
100
AcDbPolyline
 90
225
 70
0
 10
28.685014
 20
31.301630
 30
0.0
 10
28.671375
 20
31.301235
 30
0.0
 10
28.657388
 20
31.299740
 30
0.0
 10
28.643243
 20
31.297030
 30
0.0
 10
28.629129
 20
31.292986
 30
0.0
 10
28.615238
 20
31.287468
 30
0.0
 10
28.601756
 20
31.280345
 30
0.0
 10
28.588875
 20
31.271489
 30
0.0
 10
28.576785
 20
31.260770
 30
0.0
 10
28.566137
 20
31.248640
 30
0.0
 10
28.557363
 20
31.235737
 30
0.0
 10
28.550327
 20
31.222250
 30
0.0
 10
28.544891
 20
31.208362
 30
0.0
 10
28.540917
 20
31.194259
 30
0.0
 10
28.538265
 20
31.180131
 30
0.0
 10
28.536797
 20
31.166164
 30
0.0
 10
28.536402
 20
31.152544
 30
0.0
 10
28.536402
 20
30.807804
 30
0.0
 10
28.536402
 20
30.463064
 30
0.0
 10
28.536402
 20
30.118323
 30
0.0
 10
28.536402
 20
29.773583
 30
0.0
 10
28.536402
 20
29.428843
 30
0.0
 10
28.536402
 20
29.084103
 30
0.0
 10
28.536402
 20
28.739363
 30
0.0
 10
28.536402
 20
28.394623
 30
0.0
 10
28.536797
 20
28.381009
 30
0.0
 10
28.538265
 20
28.367041
 30
0.0
 10
28.540917
 20
28.352908
 30
0.0
 10
28.544908
 20
28.338799
 30
0.0
 10
28.550369
 20
28.324906
 30
0.0
 10
28.557436
 20
28.311413
 30
0.0
 10
28.566247
 20
28.298512
 30
0.0
 10
28.576935
 20
28.286394
 30
0.0
 10
28.589087
 20
28.275726
 30
0.0
 10
28.601999
 20
28.266934
 30
0.0
 10
28.615486
 20
28.259887
 30
0.0
 10
28.629360
 20
28.254446
 30
0.0
 10
28.643435
 20
28.250475
 30
0.0
 10
28.657526
 20
28.247850
 30
0.0
 10
28.671445
 20
28.246411
 30
0.0
 10
28.685009
 20
28.246044
 30
0.0
 10
28.876559
 20
28.246044
 30
0.0
 10
29.068109
 20
28.246044
 30
0.0
 10
29.259659
 20
28.246044
 30
0.0
 10
29.451209
 20
28.246044
 30
0.0
 10
29.642759
 20
28.246044
 30
0.0
 10
29.834309
 20
28.246044
 30
0.0
 10
30.025859
 20
28.246044
 30
0.0
 10
30.217409
 20
28.246044
 30
0.0
 10
30.231094
 20
28.246439
 30
0.0
 10
30.245137
 20
28.247935
 30
0.0
 10
30.259344
 20
28.250644
 30
0.0
 10
30.273523
 20
28.254700
 30
0.0
 10
30.287482
 20
28.260237
 30
0.0
 10
30.301026
 20
28.267386
 30
0.0
 10
30.313963
 20
28.276279
 30
0.0
 10
30.326098
 20
28.287048
 30
0.0
 10
30.336747
 20
28.299226
 30
0.0
 10
30.345515
 20
28.312155
 30
0.0
 10
30.352540
 20
28.325656
 30
0.0
 10
30.357958
 20
28.339550
 30
0.0
 10
30.361909
 20
28.353653
 30
0.0
 10
30.364534
 20
28.367789
 30
0.0
 10
30.365945
 20
28.381776
 30
0.0
 10
30.366312
 20
28.395433
 30
0.0
 10
30.365945
 20
28.409135
 30
0.0
 10
30.364534
 20
28.423184
 30
0.0
 10
30.361909
 20
28.437397
 30
0.0
 10
30.357953
 20
28.451590
 30
0.0
 10
30.352517
 20
28.465574
 30
0.0
 10
30.345464
 20
28.479165
 30
0.0
 10
30.336651
 20
28.492179
 30
0.0
 10
30.325937
 20
28.504427
 30
0.0
 10
30.320104
 20
28.509953
 30
0.0
 10
30.313957
 20
28.515056
 30
0.0
 10
30.307542
 20
28.519732
 30
0.0
 10
30.300907
 20
28.523982
 30
0.0
 10
30.294100
 20
28.527804
 30
0.0
 10
30.287169
 20
28.531193
 30
0.0
 10
30.280161
 20
28.534148
 30
0.0
 10
30.273125
 20
28.536660
 30
0.0
 10
30.266098
 20
28.538805
 30
0.0
 10
30.259085
 20
28.540583
 30
0.0
 10
30.252086
 20
28.542050
 30
0.0
 10
30.245106
 20
28.543207
 30
0.0
 10
30.238147
 20
28.544054
 30
0.0
 10
30.231207
 20
28.544647
 30
0.0
 10
30.224289
 20
28.544985
 30
0.0
 10
30.217398
 20
28.545102
 30
0.0
 10
30.044442
 20
28.545102
 30
0.0
 10
29.871487
 20
28.545102
 30
0.0
 10
29.698531
 20
28.545102
 30
0.0
 10
29.525576
 20
28.545102
 30
0.0
 10
29.352621
 20
28.545102
 30
0.0
 10
29.179665
 20
28.545102
 30
0.0
 10
29.006710
 20
28.545102
 30
0.0
 10
28.833755
 20
28.545102
 30
0.0
 10
28.833755
 20
28.680101
 30
0.0
 10
28.833755
 20
28.815100
 30
0.0
 10
28.833755
 20
28.950098
 30
0.0
 10
28.833755
 20
29.085097
 30
0.0
 10
28.833755
 20
29.220095
 30
0.0
 10
28.833755
 20
29.355093
 30
0.0
 10
28.833755
 20
29.490092
 30
0.0
 10
28.833755
 20
29.625091
 30
0.0
 10
28.968388
 20
29.625091
 30
0.0
 10
29.103022
 20
29.625091
 30
0.0
 10
29.237656
 20
29.625091
 30
0.0
 10
29.372290
 20
29.625091
 30
0.0
 10
29.506924
 20
29.625091
 30
0.0
 10
29.641558
 20
29.625091
 30
0.0
 10
29.776191
 20
29.625091
 30
0.0
 10
29.910825
 20
29.625091
 30
0.0
 10
29.924507
 20
29.625486
 30
0.0
 10
29.938542
 20
29.626953
 30
0.0
 10
29.952738
 20
29.629634
 30
0.0
 10
29.966900
 20
29.633673
 30
0.0
 10
29.980836
 20
29.639188
 30
0.0
 10
29.994355
 20
29.646311
 30
0.0
 10
30.007261
 20
29.655176
 30
0.0
 10
30.019359
 20
29.665911
 30
0.0
 10
30.030008
 20
29.678120
 30
0.0
 10
30.038776
 20
29.691077
 30
0.0
 10
30.045801
 20
29.704601
 30
0.0
 10
30.051219
 20
29.718506
 30
0.0
 10
30.055171
 20
29.732612
 30
0.0
 10
30.057795
 20
29.746734
 30
0.0
 10
30.059206
 20
29.760690
 30
0.0
 10
30.059573
 20
29.774296
 30
0.0
 10
30.059206
 20
29.787970
 30
0.0
 10
30.057795
 20
29.801976
 30
0.0
 10
30.055199
 20
29.816141
 30
0.0
 10
30.051296
 20
29.830286
 30
0.0
 10
30.045933
 20
29.844233
 30
0.0
 10
30.038968
 20
29.857808
 30
0.0
 10
30.030256
 20
29.870836
 30
0.0
 10
30.019656
 20
29.883138
 30
0.0
 10
30.013859
 20
29.888703
 30
0.0
 10
30.007735
 20
29.893857
 30
0.0
 10
30.001334
 20
29.898595
 30
0.0
 10
29.994704
 20
29.902910
 30
0.0
 10
29.987892
 20
29.906796
 30
0.0
 10
29.980946
 20
29.910251
 30
0.0
 10
29.973913
 20
29.913265
 30
0.0
 10
29.966844
 20
29.915833
 30
0.0
 10
29.959777
 20
29.918035
 30
0.0
 10
29.952724
 20
29.919869
 30
0.0
 10
29.945688
 20
29.921365
 30
0.0
 10
29.938669
 20
29.922522
 30
0.0
 10
29.931670
 20
29.923397
 30
0.0
 10
29.924694
 20
29.923989
 30
0.0
 10
29.917740
 20
29.924328
 30
0.0
 10
29.910811
 20
29.924434
 30
0.0
 10
29.776177
 20
29.924434
 30
0.0
 10
29.641543
 20
29.924434
 30
0.0
 10
29.506910
 20
29.924434
 30
0.0
 10
29.372276
 20
29.924434
 30
0.0
 10
29.237642
 20
29.924434
 30
0.0
 10
29.103008
 20
29.924434
 30
0.0
 10
28.968374
 20
29.924434
 30
0.0
 10
28.833740
 20
29.924434
 30
0.0
 10
28.833740
 20
30.059164
 30
0.0
 10
28.833740
 20
30.193894
 30
0.0
 10
28.833740
 20
30.328624
 30
0.0
 10
28.833740
 20
30.463354
 30
0.0
 10
28.833740
 20
30.598084
 30
0.0
 10
28.833740
 20
30.732814
 30
0.0
 10
28.833740
 20
30.867544
 30
0.0
 10
28.833740
 20
31.002274
 30
0.0
 10
29.006696
 20
31.002274
 30
0.0
 10
29.179651
 20
31.002274
 30
0.0
 10
29.352607
 20
31.002274
 30
0.0
 10
29.525562
 20
31.002274
 30
0.0
 10
29.698517
 20
31.002274
 30
0.0
 10
29.871473
 20
31.002274
 30
0.0
 10
30.044428
 20
31.002274
 30
0.0
 10
30.217383
 20
31.002274
 30
0.0
 10
30.231105
 20
31.002670
 30
0.0
 10
30.245182
 20
31.004165
 30
0.0
 10
30.259418
 20
31.006875
 30
0.0
 10
30.273613
 20
31.010933
 30
0.0
 10
30.287572
 20
31.016473
 30
0.0
 10
30.301099
 20
31.023622
 30
0.0
 10
30.313997
 20
31.032512
 30
0.0
 10
30.326067
 20
31.043273
 30
0.0
 10
30.336684
 20
31.055439
 30
0.0
 10
30.345439
 20
31.068382
 30
0.0
 10
30.352463
 20
31.081912
 30
0.0
 10
30.357891
 20
31.095842
 30
0.0
 10
30.361853
 20
31.109985
 30
0.0
 10
30.364478
 20
31.124152
 30
0.0
 10
30.365917
 20
31.138156
 30
0.0
 10
30.366284
 20
31.151810
 30
0.0
 10
30.365889
 20
31.165484
 30
0.0
 10
30.364449
 20
31.179485
 30
0.0
 10
30.361825
 20
31.193635
 30
0.0
 10
30.357868
 20
31.207755
 30
0.0
 10
30.352449
 20
31.221666
 30
0.0
 10
30.345436
 20
31.235187
 30
0.0
 10
30.336690
 20
31.248141
 30
0.0
 10
30.326076
 20
31.260350
 30
0.0
 10
30.313974
 20
31.271162
 30
0.0
 10
30.301062
 20
31.280105
 30
0.0
 10
30.287533
 20
31.287305
 30
0.0
 10
30.273580
 20
31.292893
 30
0.0
 10
30.259395
 20
31.296993
 30
0.0
 10
30.245174
 20
31.299731
 30
0.0
 10
30.231108
 20
31.301227
 30
0.0
 10
30.217389
 20
31.301622
 30
0.0
 10
30.025839
 20
31.301622
 30
0.0
 10
29.834289
 20
31.301622
 30
0.0
 10
29.642739
 20
31.301622
 30
0.0
 10
29.451189
 20
31.301622
 30
0.0
 10
29.259639
 20
31.301622
 30
0.0
 10
29.068089
 20
31.301622
 30
0.0
 10
28.876539
 20
31.301622
 30
0.0
 10
28.684989
 20
31.301622
 30
0.0
 10
28.684989
 20
31.301625
 30
0.0
 10
28.684989
 20
31.301628
 30
0.0
 10
28.684989
 20
31.301632
 30
0.0
 10
28.684989
 20
31.301635
 30
0.0
 10
28.684989
 20
31.301638
 30
0.0
 10
28.684989
 20
31.301641
 30
0.0
 10
28.684989
 20
31.301644
 30
0.0
 10
28.685014
 20
31.301630
 30
0.0
  0
LWPOLYLINE
  5
103
100
AcDbEntity
  8
logos
 62
7
100
AcDbPolyline
 90
225
 70
0
 10
31.719113
 20
31.301630
 30
0.0
 10
31.712170
 20
31.301496
 30
0.0
 10
31.705228
 20
31.301129
 30
0.0
 10
31.698257
 20
31.300536
 30
0.0
 10
31.691258
 20
31.299661
 30
0.0
 10
31.684230
 20
31.298504
 30
0.0
 10
31.677203
 20
31.297037
 30
0.0
 10
31.670147
 20
31.295230
 30
0.0
 10
31.663092
 20
31.293057
 30
0.0
 10
31.652537
 20
31.289149
 30
0.0
 10
31.642123
 20
31.284162
 30
0.0
 10
31.632019
 20
31.278170
 30
0.0
 10
31.622367
 20
31.271244
 30
0.0
 10
31.613280
 20
31.263455
 30
0.0
 10
31.604954
 20
31.254878
 30
0.0
 10
31.597503
 20
31.245582
 30
0.0
 10
31.591069
 20
31.235642
 30
0.0
 10
31.585622
 20
31.225389
 30
0.0
 10
31.581163
 20
31.215017
 30
0.0
 10
31.577579
 20
31.204569
 30
0.0
 10
31.574756
 20
31.194085
 30
0.0
 10
31.572781
 20
31.183603
 30
0.0
 10
31.571370
 20
31.173167
 30
0.0
 10
31.570523
 20
31.162815
 30
0.0
 10
31.570292
 20
31.152590
 30
0.0
 10
31.570292
 20
30.807850
 30
0.0
 10
31.570292
 20
30.463110
 30
0.0
 10
31.570292
 20
30.118369
 30
0.0
 10
31.570292
 20
29.773629
 30
0.0
 10
31.570292
 20
29.428889
 30
0.0
 10
31.570292
 20
29.084149
 30
0.0
 10
31.570292
 20
28.739409
 30
0.0
 10
31.570292
 20
28.394669
 30
0.0
 10
31.570388
 20
28.387822
 30
0.0
 10
31.570670
 20
28.380956
 30
0.0
 10
31.571234
 20
28.374067
 30
0.0
 10
31.572081
 20
28.367155
 30
0.0
 10
31.573210
 20
28.360218
 30
0.0
 10
31.574621
 20
28.353256
 30
0.0
 10
31.576314
 20
28.346268
 30
0.0
 10
31.578572
 20
28.339252
 30
0.0
 10
31.582354
 20
28.328764
 30
0.0
 10
31.587236
 20
28.318401
 30
0.0
 10
31.593135
 20
28.308309
 30
0.0
 10
31.599993
 20
28.298634
 30
0.0
 10
31.607726
 20
28.289527
 30
0.0
 10
31.616277
 20
28.281137
 30
0.0
 10
31.625562
 20
28.273610
 30
0.0
 10
31.635524
 20
28.267096
 30
0.0
 10
31.645826
 20
28.261550
 30
0.0
 10
31.656240
 20
28.256993
 30
0.0
 10
31.666738
 20
28.253343
 30
0.0
 10
31.677293
 20
28.250521
 30
0.0
 10
31.687848
 20
28.248461
 30
0.0
 10
31.698347
 20
28.247078
 30
0.0
 10
31.708761
 20
28.246316
 30
0.0
 10
31.719062
 20
28.246068
 30
0.0
 10
31.910612
 20
28.246068
 30
0.0
 10
32.102162
 20
28.246068
 30
0.0
 10
32.293712
 20
28.246068
 30
0.0
 10
32.485262
 20
28.246068
 30
0.0
 10
32.676812
 20
28.246068
 30
0.0
 10
32.868361
 20
28.246068
 30
0.0
 10
33.059911
 20
28.246068
 30
0.0
 10
33.251461
 20
28.246068
 30
0.0
 10
33.265149
 20
28.246463
 30
0.0
 10
33.279175
 20
28.247930
 30
0.0
 10
33.293371
 20
28.250611
 30
0.0
 10
33.307539
 20
28.254644
 30
0.0
 10
33.321481
 20
28.260145
 30
0.0
 10
33.334999
 20
28.267240
 30
0.0
 10
33.347897
 20
28.276059
 30
0.0
 10
33.360004
 20
28.286727
 30
0.0
 10
33.370700
 20
28.298838
 30
0.0
 10
33.379534
 20
28.311738
 30
0.0
 10
33.386646
 20
28.325242
 30
0.0
 10
33.392149
 20
28.339170
 30
0.0
 10
33.396185
 20
28.353335
 30
0.0
 10
33.399007
 20
28.367553
 30
0.0
 10
33.400418
 20
28.381642
 30
0.0
 10
33.400700
 20
28.395414
 30
0.0
 10
33.400418
 20
28.409226
 30
0.0
 10
33.399007
 20
28.423365
 30
0.0
 10
33.396185
 20
28.437643
 30
0.0
 10
33.392149
 20
28.451873
 30
0.0
 10
33.386646
 20
28.465868
 30
0.0
 10
33.379534
 20
28.479440
 30
0.0
 10
33.370672
 20
28.492400
 30
0.0
 10
33.359947
 20
28.504561
 30
0.0
 10
33.347755
 20
28.515246
 30
0.0
 10
33.334773
 20
28.524057
 30
0.0
 10
33.321227
 20
28.531126
 30
0.0
 10
33.307285
 20
28.536590
 30
0.0
 10
33.293145
 20
28.540584
 30
0.0
 10
33.278978
 20
28.543236
 30
0.0
 10
33.265008
 20
28.544704
 30
0.0
 10
33.251405
 20
28.545099
 30
0.0
 10
33.078391
 20
28.545099
 30
0.0
 10
32.905378
 20
28.545099
 30
0.0
 10
32.732367
 20
28.545099
 30
0.0
 10
32.559354
 20
28.545099
 30
0.0
 10
32.386340
 20
28.545099
 30
0.0
 10
32.213326
 20
28.545099
 30
0.0
 10
32.040316
 20
28.545099
 30
0.0
 10
31.867302
 20
28.545099
 30
0.0
 10
31.867302
 20
28.680098
 30
0.0
 10
31.867302
 20
28.815096
 30
0.0
 10
31.867302
 20
28.950095
 30
0.0
 10
31.867302
 20
29.085093
 30
0.0
 10
31.867302
 20
29.220092
 30
0.0
 10
31.867302
 20
29.355090
 30
0.0
 10
31.867302
 20
29.490089
 30
0.0
 10
31.867302
 20
29.625087
 30
0.0
 10
32.001973
 20
29.625087
 30
0.0
 10
32.136647
 20
29.625087
 30
0.0
 10
32.271318
 20
29.625087
 30
0.0
 10
32.405991
 20
29.625087
 30
0.0
 10
32.540662
 20
29.625087
 30
0.0
 10
32.675336
 20
29.625087
 30
0.0
 10
32.810006
 20
29.625087
 30
0.0
 10
32.944680
 20
29.625087
 30
0.0
 10
32.958368
 20
29.625482
 30
0.0
 10
32.972394
 20
29.626950
 30
0.0
 10
32.986562
 20
29.629631
 30
0.0
 10
33.000701
 20
29.633664
 30
0.0
 10
33.014615
 20
29.639165
 30
0.0
 10
33.028105
 20
29.646260
 30
0.0
 10
33.041002
 20
29.655079
 30
0.0
 10
33.053110
 20
29.665747
 30
0.0
 10
33.063778
 20
29.677857
 30
0.0
 10
33.072583
 20
29.690758
 30
0.0
 10
33.079667
 20
29.704259
 30
0.0
 10
33.085142
 20
29.718178
 30
0.0
 10
33.089150
 20
29.732326
 30
0.0
 10
33.091690
 20
29.746519
 30
0.0
 10
33.093101
 20
29.760568
 30
0.0
 10
33.093383
 20
29.774287
 30
0.0
 10
33.093101
 20
29.788073
 30
0.0
 10
33.091690
 20
29.802168
 30
0.0
 10
33.089150
 20
29.816392
 30
0.0
 10
33.085170
 20
29.830570
 30
0.0
 10
33.079752
 20
29.844526
 30
0.0
 10
33.072724
 20
29.858082
 30
0.0
 10
33.063975
 20
29.871061
 30
0.0
 10
33.053392
 20
29.883287
 30
0.0
 10
33.041313
 20
29.894068
 30
0.0
 10
33.028415
 20
29.902983
 30
0.0
 10
33.014897
 20
29.910160
 30
0.0
 10
33.000927
 20
29.915725
 30
0.0
 10
32.986731
 20
29.919806
 30
0.0
 10
32.972507
 20
29.922544
 30
0.0
 10
32.958424
 20
29.924040
 30
0.0
 10
32.944708
 20
29.924435
 30
0.0
 10
32.810035
 20
29.924435
 30
0.0
 10
32.675364
 20
29.924435
 30
0.0
 10
32.540690
 20
29.924435
 30
0.0
 10
32.406019
 20
29.924435
 30
0.0
 10
32.271346
 20
29.924435
 30
0.0
 10
32.136675
 20
29.924435
 30
0.0
 10
32.002001
 20
29.924435
 30
0.0
 10
31.867331
 20
29.924435
 30
0.0
 10
31.867331
 20
30.059165
 30
0.0
 10
31.867331
 20
30.193895
 30
0.0
 10
31.867331
 20
30.328625
 30
0.0
 10
31.867331
 20
30.463355
 30
0.0
 10
31.867331
 20
30.598085
 30
0.0
 10
31.867331
 20
30.732815
 30
0.0
 10
31.867331
 20
30.867545
 30
0.0
 10
31.867331
 20
31.002275
 30
0.0
 10
32.040344
 20
31.002275
 30
0.0
 10
32.213355
 20
31.002275
 30
0.0
 10
32.386368
 20
31.002275
 30
0.0
 10
32.559382
 20
31.002275
 30
0.0
 10
32.732395
 20
31.002275
 30
0.0
 10
32.905406
 20
31.002275
 30
0.0
 10
33.078419
 20
31.002275
 30
0.0
 10
33.251433
 20
31.002275
 30
0.0
 10
33.265149
 20
31.002670
 30
0.0
 10
33.279204
 20
31.004166
 30
0.0
 10
33.293399
 20
31.006876
 30
0.0
 10
33.307567
 20
31.010931
 30
0.0
 10
33.321481
 20
31.016457
 30
0.0
 10
33.334971
 20
31.023577
 30
0.0
 10
33.347868
 20
31.032419
 30
0.0
 10
33.359976
 20
31.043107
 30
0.0
 10
33.370644
 20
31.055206
 30
0.0
 10
33.379477
 20
31.068104
 30
0.0
 10
33.386589
 20
31.081614
 30
0.0
 10
33.392121
 20
31.095550
 30
0.0
 10
33.396185
 20
31.109723
 30
0.0
 10
33.399007
 20
31.123947
 30
0.0
 10
33.400418
 20
31.138035
 30
0.0
 10
33.400983
 20
31.151799
 30
0.0
 10
33.400700
 20
31.165572
 30
0.0
 10
33.399289
 20
31.179660
 30
0.0
 10
33.396467
 20
31.193884
 30
0.0
 10
33.392431
 20
31.208060
 30
0.0
 10
33.386928
 20
31.222005
 30
0.0
 10
33.379844
 20
31.235538
 30
0.0
 10
33.371039
 20
31.248478
 30
0.0
 10
33.360371
 20
31.260641
 30
0.0
 10
33.348235
 20
31.271357
 30
0.0
 10
33.335309
 20
31.280225
 30
0.0
 10
33.321763
 20
31.287371
 30
0.0
 10
33.307821
 20
31.292919
 30
0.0
 10
33.293653
 20
31.296994
 30
0.0
 10
33.279458
 20
31.299732
 30
0.0
 10
33.265403
 20
31.301228
 30
0.0
 10
33.251687
 20
31.301623
 30
0.0
 10
33.060137
 20
31.301623
 30
0.0
 10
32.868587
 20
31.301623
 30
0.0
 10
32.677037
 20
31.301623
 30
0.0
 10
32.485487
 20
31.301623
 30
0.0
 10
32.293938
 20
31.301623
 30
0.0
 10
32.102388
 20
31.301623
 30
0.0
 10
31.910838
 20
31.301623
 30
0.0
 10
31.719288
 20
31.301623
 30
0.0
 10
31.719288
 20
31.301620
 30
0.0
 10
31.719291
 20
31.301617
 30
0.0
 10
31.719291
 20
31.301614
 30
0.0
 10
31.719294
 20
31.301611
 30
0.0
 10
31.719294
 20
31.301609
 30
0.0
 10
31.719296
 20
31.301606
 30
0.0
 10
31.719296
 20
31.301603
 30
0.0
 10
31.719113
 20
31.301630
 30
0.0
  0
LWPOLYLINE
  5
104
100
AcDbEntity
  8
logos
 62
7
100
AcDbPolyline
 90
89
 70
0
 10
34.752751
 20
31.301630
 30
0.0
 10
34.739148
 20
31.301235
 30
0.0
 10
34.725178
 20
31.299740
 30
0.0
 10
34.711067
 20
31.297030
 30
0.0
 10
34.696984
 20
31.292975
 30
0.0
 10
34.683127
 20
31.287449
 30
0.0
 10
34.669693
 20
31.280328
 30
0.0
 10
34.656852
 20
31.271486
 30
0.0
 10
34.644829
 20
31.260798
 30
0.0
 10
34.634246
 20
31.248694
 30
0.0
 10
34.625497
 20
31.235813
 30
0.0
 10
34.618441
 20
31.222340
 30
0.0
 10
34.612966
 20
31.208460
 30
0.0
 10
34.608959
 20
31.194358
 30
0.0
 10
34.606419
 20
31.180218
 30
0.0
 10
34.605007
 20
31.166226
 30
0.0
 10
34.604725
 20
31.152566
 30
0.0
 10
34.604725
 20
30.807826
 30
0.0
 10
34.604725
 20
30.463086
 30
0.0
 10
34.604725
 20
30.118346
 30
0.0
 10
34.604725
 20
29.773606
 30
0.0
 10
34.604725
 20
29.428866
 30
0.0
 10
34.604725
 20
29.084126
 30
0.0
 10
34.604725
 20
28.739386
 30
0.0
 10
34.604725
 20
28.394646
 30
0.0
 10
34.605007
 20
28.380983
 30
0.0
 10
34.606419
 20
28.366985
 30
0.0
 10
34.609241
 20
28.352840
 30
0.0
 10
34.613248
 20
28.338735
 30
0.0
 10
34.618723
 20
28.324852
 30
0.0
 10
34.625807
 20
28.311382
 30
0.0
 10
34.634584
 20
28.298507
 30
0.0
 10
34.645196
 20
28.286416
 30
0.0
 10
34.657247
 20
28.275785
 30
0.0
 10
34.670088
 20
28.267013
 30
0.0
 10
34.683522
 20
28.259969
 30
0.0
 10
34.697351
 20
28.254519
 30
0.0
 10
34.711405
 20
28.250534
 30
0.0
 10
34.725488
 20
28.247882
 30
0.0
 10
34.739402
 20
28.246442
 30
0.0
 10
34.752977
 20
28.246047
 30
0.0
 10
34.867923
 20
28.246047
 30
0.0
 10
34.982866
 20
28.246047
 30
0.0
 10
35.097813
 20
28.246047
 30
0.0
 10
35.212756
 20
28.246047
 30
0.0
 10
35.327702
 20
28.246047
 30
0.0
 10
35.442649
 20
28.246047
 30
0.0
 10
35.557592
 20
28.246047
 30
0.0
 10
35.672538
 20
28.246047
 30
0.0
 10
35.827097
 20
28.252868
 30
0.0
 10
35.976472
 20
28.273908
 30
0.0
 10
36.120473
 20
28.309073
 30
0.0
 10
36.258900
 20
28.358270
 30
0.0
 10
36.391562
 20
28.421409
 30
0.0
 10
36.518260
 20
28.498396
 30
0.0
 10
36.638800
 20
28.589139
 30
0.0
 10
36.752987
 20
28.693547
 30
0.0
 10
36.857536
 20
28.807709
 30
0.0
 10
36.948375
 20
28.928236
 30
0.0
 10
37.025416
 20
29.054929
 30
0.0
 10
37.088583
 20
29.187586
 30
0.0
 10
37.137785
 20
29.326006
 30
0.0
 10
37.172945
 20
29.469989
 30
0.0
 10
37.193970
 20
29.619334
 30
0.0
 10
37.200800
 20
29.773840
 30
0.0
 10
37.193998
 20
29.928336
 30
0.0
 10
37.172973
 20
30.077661
 30
0.0
 10
37.137828
 20
30.221614
 30
0.0
 10
37.088639
 20
30.359996
 30
0.0
 10
37.025495
 20
30.492608
 30
0.0
 10
36.948476
 20
30.619250
 30
0.0
 10
36.857671
 20
30.739723
 30
0.0
 10
36.753159
 20
30.853828
 30
0.0
 10
36.638966
 20
30.958373
 30
0.0
 10
36.518406
 20
31.049200
 30
0.0
 10
36.391686
 20
31.126230
 30
0.0
 10
36.258996
 20
31.189384
 30
0.0
 10
36.120538
 20
31.238581
 30
0.0
 10
35.976514
 20
31.273741
 30
0.0
 10
35.827120
 20
31.294787
 30
0.0
 10
35.672555
 20
31.301636
 30
0.0
 10
35.557609
 20
31.301636
 30
0.0
 10
35.442666
 20
31.301636
 30
0.0
 10
35.327719
 20
31.301636
 30
0.0
 10
35.212776
 20
31.301636
 30
0.0
 10
35.097830
 20
31.301636
 30
0.0
 10
34.982883
 20
31.301636
 30
0.0
 10
34.867940
 20
31.301636
 30
0.0
 10
34.752751
 20
31.301630
 30
0.0
  0
LWPOLYLINE
  5
105
100
AcDbEntity
  8
logos
 62
7
100
AcDbPolyline
 90
217
 70
0
 10
38.553048
 20
31.301630
 30
0.0
 10
38.539417
 20
31.301235
 30
0.0
 10
38.525418
 20
31.299768
 30
0.0
 10
38.511279
 20
31.297087
 30
0.0
 10
38.497168
 20
31.293059
 30
0.0
 10
38.483283
 20
31.287562
 30
0.0
 10
38.469792
 20
31.280467
 30
0.0
 10
38.456895
 20
31.271641
 30
0.0
 10
38.444816
 20
31.260957
 30
0.0
 10
38.434204
 20
31.248807
 30
0.0
 10
38.425427
 20
31.235884
 30
0.0
 10
38.418372
 20
31.222374
 30
0.0
 10
38.412925
 20
31.208466
 30
0.0
 10
38.408917
 20
31.194344
 30
0.0
 10
38.406377
 20
31.180196
 30
0.0
 10
38.404966
 20
31.166209
 30
0.0
 10
38.404684
 20
31.152572
 30
0.0
 10
38.404684
 20
30.807832
 30
0.0
 10
38.404684
 20
30.463092
 30
0.0
 10
38.404684
 20
30.118352
 30
0.0
 10
38.404684
 20
29.773612
 30
0.0
 10
38.404684
 20
29.428871
 30
0.0
 10
38.404684
 20
29.084131
 30
0.0
 10
38.404684
 20
28.739391
 30
0.0
 10
38.404684
 20
28.394651
 30
0.0
 10
38.404966
 20
28.381003
 30
0.0
 10
38.406377
 20
28.367016
 30
0.0
 10
38.408917
 20
28.352877
 30
0.0
 10
38.412925
 20
28.338771
 30
0.0
 10
38.418400
 20
28.324886
 30
0.0
 10
38.425484
 20
28.311410
 30
0.0
 10
38.434289
 20
28.298526
 30
0.0
 10
38.444985
 20
28.286422
 30
0.0
 10
38.457121
 20
28.275754
 30
0.0
 10
38.470018
 20
28.266963
 30
0.0
 10
38.483508
 20
28.259915
 30
0.0
 10
38.497394
 20
28.254474
 30
0.0
 10
38.511477
 20
28.250503
 30
0.0
 10
38.525588
 20
28.247879
 30
0.0
 10
38.539530
 20
28.246439
 30
0.0
 10
38.553104
 20
28.246072
 30
0.0
 10
38.566651
 20
28.246468
 30
0.0
 10
38.580565
 20
28.247935
 30
0.0
 10
38.594648
 20
28.250588
 30
0.0
 10
38.608702
 20
28.254579
 30
0.0
 10
38.622559
 20
28.260031
 30
0.0
 10
38.636021
 20
28.267075
 30
0.0
 10
38.648891
 20
28.275841
 30
0.0
 10
38.660998
 20
28.286458
 30
0.0
 10
38.671694
 20
28.298523
 30
0.0
 10
38.680556
 20
28.311382
 30
0.0
 10
38.687668
 20
28.324846
 30
0.0
 10
38.693200
 20
28.338729
 30
0.0
 10
38.697264
 20
28.352843
 30
0.0
 10
38.700086
 20
28.366999
 30
0.0
 10
38.701497
 20
28.381009
 30
0.0
 10
38.701779
 20
28.394688
 30
0.0
 10
38.701779
 20
28.548492
 30
0.0
 10
38.701779
 20
28.702296
 30
0.0
 10
38.701779
 20
28.856100
 30
0.0
 10
38.701779
 20
29.009904
 30
0.0
 10
38.701779
 20
29.163708
 30
0.0
 10
38.701779
 20
29.317512
 30
0.0
 10
38.701779
 20
29.471316
 30
0.0
 10
38.701779
 20
29.625120
 30
0.0
 10
38.894480
 20
29.625120
 30
0.0
 10
39.087182
 20
29.625120
 30
0.0
 10
39.279883
 20
29.625120
 30
0.0
 10
39.472584
 20
29.625120
 30
0.0
 10
39.665289
 20
29.625120
 30
0.0
 10
39.857990
 20
29.625120
 30
0.0
 10
40.050691
 20
29.625120
 30
0.0
 10
40.243393
 20
29.625120
 30
0.0
 10
40.243393
 20
29.471316
 30
0.0
 10
40.243393
 20
29.317512
 30
0.0
 10
40.243393
 20
29.163708
 30
0.0
 10
40.243393
 20
29.009904
 30
0.0
 10
40.243393
 20
28.856100
 30
0.0
 10
40.243393
 20
28.702296
 30
0.0
 10
40.243393
 20
28.548492
 30
0.0
 10
40.243393
 20
28.394688
 30
0.0
 10
40.243503
 20
28.387827
 30
0.0
 10
40.243785
 20
28.380944
 30
0.0
 10
40.244349
 20
28.374035
 30
0.0
 10
40.245196
 20
28.367101
 30
0.0
 10
40.246325
 20
28.360141
 30
0.0
 10
40.247736
 20
28.353156
 30
0.0
 10
40.249429
 20
28.346146
 30
0.0
 10
40.251687
 20
28.339113
 30
0.0
 10
40.255554
 20
28.328594
 30
0.0
 10
40.260492
 20
28.318203
 30
0.0
 10
40.266419
 20
28.308088
 30
0.0
 10
40.273277
 20
28.298402
 30
0.0
 10
40.281010
 20
28.289295
 30
0.0
 10
40.289561
 20
28.280918
 30
0.0
 10
40.298846
 20
28.273423
 30
0.0
 10
40.308781
 20
28.266960
 30
0.0
 10
40.319082
 20
28.261431
 30
0.0
 10
40.329496
 20
28.256896
 30
0.0
 10
40.339994
 20
28.253275
 30
0.0
 10
40.350550
 20
28.250481
 30
0.0
 10
40.361105
 20
28.248449
 30
0.0
 10
40.371603
 20
28.247094
 30
0.0
 10
40.382017
 20
28.246332
 30
0.0
 10
40.392318
 20
28.246081
 30
0.0
 10
40.405865
 20
28.246476
 30
0.0
 10
40.419779
 20
28.247943
 30
0.0
 10
40.433862
 20
28.250624
 30
0.0
 10
40.447944
 20
28.254649
 30
0.0
 10
40.461802
 20
28.260144
 30
0.0
 10
40.475235
 20
28.267242
 30
0.0
 10
40.488076
 20
28.276072
 30
0.0
 10
40.500099
 20
28.286766
 30
0.0
 10
40.510682
 20
28.298899
 30
0.0
 10
40.519403
 20
28.311776
 30
0.0
 10
40.526402
 20
28.325221
 30
0.0
 10
40.531793
 20
28.339053
 30
0.0
 10
40.535744
 20
28.353097
 30
0.0
 10
40.538284
 20
28.367168
 30
0.0
 10
40.539695
 20
28.381093
 30
0.0
 10
40.539977
 20
28.394690
 30
0.0
 10
40.539977
 20
28.739431
 30
0.0
 10
40.539977
 20
29.084171
 30
0.0
 10
40.539977
 20
29.428912
 30
0.0
 10
40.539977
 20
29.773652
 30
0.0
 10
40.539977
 20
30.118393
 30
0.0
 10
40.539977
 20
30.463133
 30
0.0
 10
40.539977
 20
30.807874
 30
0.0
 10
40.539977
 20
31.152614
 30
0.0
 10
40.539695
 20
31.166209
 30
0.0
 10
40.538284
 20
31.180131
 30
0.0
 10
40.535744
 20
31.194202
 30
0.0
 10
40.531821
 20
31.208246
 30
0.0
 10
40.526459
 20
31.222080
 30
0.0
 10
40.519488
 20
31.235525
 30
0.0
 10
40.510795
 20
31.248403
 30
0.0
 10
40.500240
 20
31.260536
 30
0.0
 10
40.488246
 20
31.271283
 30
0.0
 10
40.475433
 20
31.280181
 30
0.0
 10
40.461999
 20
31.287355
 30
0.0
 10
40.448142
 20
31.292926
 30
0.0
 10
40.434031
 20
31.297021
 30
0.0
 10
40.419892
 20
31.299759
 30
0.0
 10
40.405922
 20
31.301283
 30
0.0
 10
40.392318
 20
31.301678
 30
0.0
 10
40.378687
 20
31.301283
 30
0.0
 10
40.364689
 20
31.299844
 30
0.0
 10
40.350521
 20
31.297191
 30
0.0
 10
40.336382
 20
31.293220
 30
0.0
 10
40.322440
 20
31.287781
 30
0.0
 10
40.308894
 20
31.280740
 30
0.0
 10
40.295940
 20
31.271957
 30
0.0
 10
40.283748
 20
31.261295
 30
0.0
 10
40.278244
 20
31.255464
 30
0.0
 10
40.273164
 20
31.249329
 30
0.0
 10
40.268508
 20
31.242931
 30
0.0
 10
40.264274
 20
31.236318
 30
0.0
 10
40.260464
 20
31.229536
 30
0.0
 10
40.257078
 20
31.222633
 30
0.0
 10
40.254142
 20
31.215651
 30
0.0
 10
40.251602
 20
31.208635
 30
0.0
 10
40.249345
 20
31.201602
 30
0.0
 10
40.247651
 20
31.194583
 30
0.0
 10
40.246240
 20
31.187578
 30
0.0
 10
40.245111
 20
31.180593
 30
0.0
 10
40.244265
 20
31.173631
 30
0.0
 10
40.243700
 20
31.166694
 30
0.0
 10
40.243418
 20
31.159785
 30
0.0
 10
40.243308
 20
31.152907
 30
0.0
 10
40.243308
 20
30.999353
 30
0.0
 10
40.243308
 20
30.845798
 30
0.0
 10
40.243308
 20
30.692243
 30
0.0
 10
40.243308
 20
30.538689
 30
0.0
 10
40.243308
 20
30.385134
 30
0.0
 10
40.243308
 20
30.231579
 30
0.0
 10
40.243308
 20
30.078025
 30
0.0
 10
40.243308
 20
29.924470
 30
0.0
 10
40.050607
 20
29.924470
 30
0.0
 10
39.857905
 20
29.924470
 30
0.0
 10
39.665204
 20
29.924470
 30
0.0
 10
39.472503
 20
29.924470
 30
0.0
 10
39.279801
 20
29.924470
 30
0.0
 10
39.087100
 20
29.924470
 30
0.0
 10
38.894399
 20
29.924470
 30
0.0
 10
38.701697
 20
29.924470
 30
0.0
 10
38.701697
 20
30.078025
 30
0.0
 10
38.701697
 20
30.231579
 30
0.0
 10
38.701697
 20
30.385134
 30
0.0
 10
38.701697
 20
30.538689
 30
0.0
 10
38.701697
 20
30.692243
 30
0.0
 10
38.701697
 20
30.845798
 30
0.0
 10
38.701697
 20
30.999353
 30
0.0
 10
38.701697
 20
31.152907
 30
0.0
 10
38.701415
 20
31.166604
 30
0.0
 10
38.700004
 20
31.180639
 30
0.0
 10
38.697182
 20
31.194820
 30
0.0
 10
38.693146
 20
31.208960
 30
0.0
 10
38.687614
 20
31.222868
 30
0.0
 10
38.680502
 20
31.236352
 30
0.0
 10
38.671641
 20
31.249224
 30
0.0
 10
38.660944
 20
31.261295
 30
0.0
 10
38.648837
 20
31.271892
 30
0.0
 10
38.635968
 20
31.280644
 30
0.0
 10
38.622506
 20
31.287683
 30
0.0
 10
38.608649
 20
31.293135
 30
0.0
 10
38.594594
 20
31.297131
 30
0.0
 10
38.580511
 20
31.299813
 30
0.0
 10
38.566597
 20
31.301280
 30
0.0
 10
38.553023
 20
31.301675
 30
0.0
 10
38.553023
 20
31.301676
 30
0.0
 10
38.553020
 20
31.301677
 30
0.0
 10
38.553020
 20
31.301677
 30
0.0
 10
38.553020
 20
31.301678
 30
0.0
 10
38.553020
 20
31.301679
 30
0.0
 10
38.553017
 20
31.301679
 30
0.0
 10
38.553017
 20
31.301680
 30
0.0
 10
38.553048
 20
31.301630
 30
0.0
  0
LWPOLYLINE
  5
106
100
AcDbEntity
  8
logos
 62
7
100
AcDbPolyline
 90
233
 70
0
 10
42.098047
 20
31.301630
 30
0.0
 10
42.084359
 20
31.301235
 30
0.0
 10
42.070333
 20
31.299768
 30
0.0
 10
42.056137
 20
31.297087
 30
0.0
 10
42.041969
 20
31.293073
 30
0.0
 10
42.028028
 20
31.287587
 30
0.0
 10
42.014509
 20
31.280495
 30
0.0
 10
42.001583
 20
31.271661
 30
0.0
 10
41.989448
 20
31.260954
 30
0.0
 10
41.978752
 20
31.248779
 30
0.0
 10
41.969946
 20
31.235833
 30
0.0
 10
41.962862
 20
31.222306
 30
0.0
 10
41.957387
 20
31.208387
 30
0.0
 10
41.953380
 20
31.194267
 30
0.0
 10
41.950840
 20
31.180131
 30
0.0
 10
41.949429
 20
31.166169
 30
0.0
 10
41.949146
 20
31.152572
 30
0.0
 10
41.949146
 20
30.807832
 30
0.0
 10
41.949146
 20
30.463092
 30
0.0
 10
41.949146
 20
30.118352
 30
0.0
 10
41.949146
 20
29.773612
 30
0.0
 10
41.949146
 20
29.428871
 30
0.0
 10
41.949146
 20
29.084131
 30
0.0
 10
41.949146
 20
28.739391
 30
0.0
 10
41.949146
 20
28.394651
 30
0.0
 10
41.949257
 20
28.387790
 30
0.0
 10
41.949539
 20
28.380907
 30
0.0
 10
41.950103
 20
28.373998
 30
0.0
 10
41.950950
 20
28.367064
 30
0.0
 10
41.952079
 20
28.360104
 30
0.0
 10
41.953490
 20
28.353119
 30
0.0
 10
41.955183
 20
28.346109
 30
0.0
 10
41.957441
 20
28.339076
 30
0.0
 10
41.961307
 20
28.328558
 30
0.0
 10
41.966246
 20
28.318166
 30
0.0
 10
41.972201
 20
28.308051
 30
0.0
 10
41.979116
 20
28.298365
 30
0.0
 10
41.986877
 20
28.289258
 30
0.0
 10
41.995456
 20
28.280882
 30
0.0
 10
42.004741
 20
28.273386
 30
0.0
 10
42.014704
 20
28.266923
 30
0.0
 10
42.025005
 20
28.261394
 30
0.0
 10
42.035419
 20
28.256859
 30
0.0
 10
42.045889
 20
28.253238
 30
0.0
 10
42.056416
 20
28.250444
 30
0.0
 10
42.066943
 20
28.248412
 30
0.0
 10
42.077414
 20
28.247057
 30
0.0
 10
42.087799
 20
28.246295
 30
0.0
 10
42.098101
 20
28.246044
 30
0.0
 10
42.289727
 20
28.246044
 30
0.0
 10
42.481356
 20
28.246044
 30
0.0
 10
42.672982
 20
28.246044
 30
0.0
 10
42.864608
 20
28.246044
 30
0.0
 10
43.056237
 20
28.246044
 30
0.0
 10
43.247863
 20
28.246044
 30
0.0
 10
43.439491
 20
28.246044
 30
0.0
 10
43.631118
 20
28.246044
 30
0.0
 10
43.644721
 20
28.246439
 30
0.0
 10
43.658691
 20
28.247935
 30
0.0
 10
43.672830
 20
28.250672
 30
0.0
 10
43.686941
 20
28.254753
 30
0.0
 10
43.700826
 20
28.260319
 30
0.0
 10
43.714260
 20
28.267493
 30
0.0
 10
43.727073
 20
28.276405
 30
0.0
 10
43.739039
 20
28.287186
 30
0.0
 10
43.749566
 20
28.299384
 30
0.0
 10
43.758259
 20
28.312313
 30
0.0
 10
43.765230
 20
28.325797
 30
0.0
 10
43.770592
 20
28.339660
 30
0.0
 10
43.774515
 20
28.353729
 30
0.0
 10
43.777055
 20
28.367829
 30
0.0
 10
43.778466
 20
28.381782
 30
0.0
 10
43.778748
 20
28.395416
 30
0.0
 10
43.778466
 20
28.409089
 30
0.0
 10
43.777055
 20
28.423096
 30
0.0
 10
43.774515
 20
28.437255
 30
0.0
 10
43.770620
 20
28.451389
 30
0.0
 10
43.765258
 20
28.465319
 30
0.0
 10
43.758287
 20
28.478869
 30
0.0
 10
43.749594
 20
28.491857
 30
0.0
 10
43.739011
 20
28.504102
 30
0.0
 10
43.733226
 20
28.509648
 30
0.0
 10
43.727101
 20
28.514770
 30
0.0
 10
43.720723
 20
28.519469
 30
0.0
 10
43.714119
 20
28.523739
 30
0.0
 10
43.707346
 20
28.527580
 30
0.0
 10
43.700460
 20
28.530987
 30
0.0
 10
43.693489
 20
28.533959
 30
0.0
 10
43.686490
 20
28.536499
 30
0.0
 10
43.679462
 20
28.538700
 30
0.0
 10
43.672463
 20
28.540534
 30
0.0
 10
43.665492
 20
28.542030
 30
0.0
 10
43.658550
 20
28.543187
 30
0.0
 10
43.651635
 20
28.544062
 30
0.0
 10
43.644749
 20
28.544655
 30
0.0
 10
43.637891
 20
28.544994
 30
0.0
 10
43.631033
 20
28.545110
 30
0.0
 10
43.458000
 20
28.545110
 30
0.0
 10
43.284969
 20
28.545110
 30
0.0
 10
43.111936
 20
28.545110
 30
0.0
 10
42.938905
 20
28.545110
 30
0.0
 10
42.765872
 20
28.545110
 30
0.0
 10
42.592839
 20
28.545110
 30
0.0
 10
42.419808
 20
28.545110
 30
0.0
 10
42.246775
 20
28.545110
 30
0.0
 10
42.246775
 20
28.680108
 30
0.0
 10
42.246775
 20
28.815107
 30
0.0
 10
42.246775
 20
28.950105
 30
0.0
 10
42.246775
 20
29.085104
 30
0.0
 10
42.246775
 20
29.220102
 30
0.0
 10
42.246775
 20
29.355101
 30
0.0
 10
42.246775
 20
29.490100
 30
0.0
 10
42.246775
 20
29.625098
 30
0.0
 10
42.381409
 20
29.625098
 30
0.0
 10
42.516043
 20
29.625098
 30
0.0
 10
42.650678
 20
29.625098
 30
0.0
 10
42.785309
 20
29.625098
 30
0.0
 10
42.919943
 20
29.625098
 30
0.0
 10
43.054577
 20
29.625098
 30
0.0
 10
43.189211
 20
29.625098
 30
0.0
 10
43.323845
 20
29.625098
 30
0.0
 10
43.337533
 20
29.625493
 30
0.0
 10
43.351560
 20
29.626961
 30
0.0
 10
43.365727
 20
29.629642
 30
0.0
 10
43.379866
 20
29.633666
 30
0.0
 10
43.393780
 20
29.639161
 30
0.0
 10
43.407270
 20
29.646259
 30
0.0
 10
43.420168
 20
29.655090
 30
0.0
 10
43.432247
 20
29.665783
 30
0.0
 10
43.442915
 20
29.677922
 30
0.0
 10
43.451720
 20
29.690845
 30
0.0
 10
43.458776
 20
29.704363
 30
0.0
 10
43.464251
 20
29.718291
 30
0.0
 10
43.468258
 20
29.732438
 30
0.0
 10
43.470798
 20
29.746617
 30
0.0
 10
43.472210
 20
29.760641
 30
0.0
 10
43.472492
 20
29.774320
 30
0.0
 10
43.472210
 20
29.788067
 30
0.0
 10
43.470798
 20
29.802136
 30
0.0
 10
43.468258
 20
29.816349
 30
0.0
 10
43.464307
 20
29.830525
 30
0.0
 10
43.458889
 20
29.844489
 30
0.0
 10
43.451890
 20
29.858061
 30
0.0
 10
43.443141
 20
29.871063
 30
0.0
 10
43.432529
 20
29.883317
 30
0.0
 10
43.420422
 20
29.894124
 30
0.0
 10
43.407496
 20
29.903050
 30
0.0
 10
43.393949
 20
29.910227
 30
0.0
 10
43.379979
 20
29.915787
 30
0.0
 10
43.365784
 20
29.919859
 30
0.0
 10
43.351560
 20
29.922569
 30
0.0
 10
43.337505
 20
29.924064
 30
0.0
 10
43.323817
 20
29.924460
 30
0.0
 10
43.189183
 20
29.924460
 30
0.0
 10
43.054549
 20
29.924460
 30
0.0
 10
42.919915
 20
29.924460
 30
0.0
 10
42.785281
 20
29.924460
 30
0.0
 10
42.650649
 20
29.924460
 30
0.0
 10
42.516015
 20
29.924460
 30
0.0
 10
42.381381
 20
29.924460
 30
0.0
 10
42.246747
 20
29.924460
 30
0.0
 10
42.246747
 20
30.059189
 30
0.0
 10
42.246747
 20
30.193919
 30
0.0
 10
42.246747
 20
30.328649
 30
0.0
 10
42.246747
 20
30.463378
 30
0.0
 10
42.246747
 20
30.598108
 30
0.0
 10
42.246747
 20
30.732838
 30
0.0
 10
42.246747
 20
30.867568
 30
0.0
 10
42.246747
 20
31.002297
 30
0.0
 10
42.419780
 20
31.002297
 30
0.0
 10
42.592811
 20
31.002297
 30
0.0
 10
42.765844
 20
31.002297
 30
0.0
 10
42.938877
 20
31.002297
 30
0.0
 10
43.111908
 20
31.002297
 30
0.0
 10
43.284941
 20
31.002297
 30
0.0
 10
43.457971
 20
31.002297
 30
0.0
 10
43.631005
 20
31.002297
 30
0.0
 10
43.644664
 20
31.002692
 30
0.0
 10
43.658662
 20
31.004216
 30
0.0
 10
43.672830
 20
31.006954
 30
0.0
 10
43.686969
 20
31.011063
 30
0.0
 10
43.700855
 20
31.016654
 30
0.0
 10
43.714317
 20
31.023853
 30
0.0
 10
43.727130
 20
31.032786
 30
0.0
 10
43.739096
 20
31.043575
 30
0.0
 10
43.749566
 20
31.055761
 30
0.0
 10
43.758202
 20
31.068684
 30
0.0
 10
43.765145
 20
31.082166
 30
0.0
 10
43.770507
 20
31.096032
 30
0.0
 10
43.774430
 20
31.110106
 30
0.0
 10
43.776970
 20
31.124209
 30
0.0
 10
43.778381
 20
31.138168
 30
0.0
 10
43.778663
 20
31.151805
 30
0.0
 10
43.778381
 20
31.165450
 30
0.0
 10
43.776970
 20
31.179403
 30
0.0
 10
43.774430
 20
31.193492
 30
0.0
 10
43.770535
 20
31.207549
 30
0.0
 10
43.765201
 20
31.221403
 30
0.0
 10
43.758287
 20
31.234882
 30
0.0
 10
43.749679
 20
31.247817
 30
0.0
 10
43.739209
 20
31.260037
 30
0.0
 10
43.733451
 20
31.265597
 30
0.0
 10
43.727384
 20
31.270756
 30
0.0
 10
43.721034
 20
31.275505
 30
0.0
 10
43.714430
 20
31.279840
 30
0.0
 10
43.707656
 20
31.283752
 30
0.0
 10
43.700742
 20
31.287237
 30
0.0
 10
43.693743
 20
31.290285
 30
0.0
 10
43.686715
 20
31.292882
 30
0.0
 10
43.679688
 20
31.295083
 30
0.0
 10
43.672661
 20
31.296918
 30
0.0
 10
43.665662
 20
31.298413
 30
0.0
 10
43.658691
 20
31.299599
 30
0.0
 10
43.651720
 20
31.300502
 30
0.0
 10
43.644777
 20
31.301123
 30
0.0
 10
43.637863
 20
31.301490
 30
0.0
 10
43.630976
 20
31.301628
 30
0.0
 10
43.439350
 20
31.301628
 30
0.0
 10
43.247721
 20
31.301628
 30
0.0
 10
43.056095
 20
31.301628
 30
0.0
 10
42.864467
 20
31.301628
 30
0.0
 10
42.672840
 20
31.301628
 30
0.0
 10
42.481214
 20
31.301628
 30
0.0
 10
42.289586
 20
31.301628
 30
0.0
 10
42.097959
 20
31.301628
 30
0.0
 10
42.097959
 20
31.301631
 30
0.0
 10
42.097959
 20
31.301634
 30
0.0
 10
42.097962
 20
31.301638
 30
0.0
 10
42.097962
 20
31.301641
 30
0.0
 10
42.097962
 20
31.301644
 30
0.0
 10
42.097962
 20
31.301647
 30
0.0
 10
42.097965
 20
31.301650
 30
0.0
 10
42.098047
 20
31.301630
 30
0.0
  0
LWPOLYLINE
  5
107
100
AcDbEntity
  8
logos
 62
7
100
AcDbPolyline
 90
209
 70
0
 10
45.135063
 20
31.301630
 30
0.0
 10
45.121347
 20
31.301207
 30
0.0
 10
45.107320
 20
31.299740
 30
0.0
 10
45.093153
 20
31.297087
 30
0.0
 10
45.079014
 20
31.293124
 30
0.0
 10
45.065100
 20
31.287708
 30
0.0
 10
45.051553
 20
31.280706
 30
0.0
 10
45.038599
 20
31.271980
 30
0.0
 10
45.026379
 20
31.261397
 30
0.0
 10
45.015542
 20
31.249346
 30
0.0
 10
45.006567
 20
31.236451
 30
0.0
 10
44.999342
 20
31.222910
 30
0.0
 10
44.993726
 20
31.208926
 30
0.0
 10
44.989606
 20
31.194699
 30
0.0
 10
44.986783
 20
31.180427
 30
0.0
 10
44.985372
 20
31.166313
 30
0.0
 10
44.985090
 20
31.152558
 30
0.0
 10
44.985090
 20
30.807818
 30
0.0
 10
44.985090
 20
30.463078
 30
0.0
 10
44.985090
 20
30.118338
 30
0.0
 10
44.985090
 20
29.773597
 30
0.0
 10
44.985090
 20
29.428857
 30
0.0
 10
44.985090
 20
29.084117
 30
0.0
 10
44.985090
 20
28.739377
 30
0.0
 10
44.985090
 20
28.394637
 30
0.0
 10
44.985372
 20
28.380946
 30
0.0
 10
44.986783
 20
28.366900
 30
0.0
 10
44.989606
 20
28.352693
 30
0.0
 10
44.993641
 20
28.338523
 30
0.0
 10
44.999145
 20
28.324584
 30
0.0
 10
45.006257
 20
28.311071
 30
0.0
 10
45.015118
 20
28.298179
 30
0.0
 10
45.025843
 20
28.286103
 30
0.0
 10
45.038035
 20
28.275497
 30
0.0
 10
45.050989
 20
28.266765
 30
0.0
 10
45.064507
 20
28.259769
 30
0.0
 10
45.078421
 20
28.254373
 30
0.0
 10
45.092532
 20
28.250438
 30
0.0
 10
45.106671
 20
28.247842
 30
0.0
 10
45.120641
 20
28.246431
 30
0.0
 10
45.134273
 20
28.246064
 30
0.0
 10
45.147848
 20
28.246459
 30
0.0
 10
45.161789
 20
28.247898
 30
0.0
 10
45.175900
 20
28.250551
 30
0.0
 10
45.189983
 20
28.254531
 30
0.0
 10
45.203869
 20
28.259978
 30
0.0
 10
45.217359
 20
28.267025
 30
0.0
 10
45.230256
 20
28.275805
 30
0.0
 10
45.242392
 20
28.286453
 30
0.0
 10
45.253032
 20
28.298566
 30
0.0
 10
45.261809
 20
28.311455
 30
0.0
 10
45.268836
 20
28.324934
 30
0.0
 10
45.274283
 20
28.338816
 30
0.0
 10
45.278262
 20
28.352916
 30
0.0
 10
45.280802
 20
28.367053
 30
0.0
 10
45.282214
 20
28.381037
 30
0.0
 10
45.282496
 20
28.394685
 30
0.0
 10
45.282496
 20
28.685234
 30
0.0
 10
45.282496
 20
28.975783
 30
0.0
 10
45.282496
 20
29.266331
 30
0.0
 10
45.282496
 20
29.556880
 30
0.0
 10
45.282496
 20
29.847429
 30
0.0
 10
45.282496
 20
30.137978
 30
0.0
 10
45.282496
 20
30.428527
 30
0.0
 10
45.282496
 20
30.719076
 30
0.0
 10
45.516320
 20
30.418087
 30
0.0
 10
45.750146
 20
30.117099
 30
0.0
 10
45.983970
 20
29.816111
 30
0.0
 10
46.217794
 20
29.515123
 30
0.0
 10
46.451621
 20
29.214134
 30
0.0
 10
46.685445
 20
28.913146
 30
0.0
 10
46.919272
 20
28.612158
 30
0.0
 10
47.153096
 20
28.311170
 30
0.0
 10
47.153200
 20
28.311029
 30
0.0
 10
47.153307
 20
28.310888
 30
0.0
 10
47.153412
 20
28.310747
 30
0.0
 10
47.153519
 20
28.310605
 30
0.0
 10
47.153623
 20
28.310464
 30
0.0
 10
47.153731
 20
28.310323
 30
0.0
 10
47.153835
 20
28.310182
 30
0.0
 10
47.153942
 20
28.310041
 30
0.0
 10
47.159615
 20
28.303488
 30
0.0
 10
47.165513
 20
28.297152
 30
0.0
 10
47.171666
 20
28.291056
 30
0.0
 10
47.178072
 20
28.285222
 30
0.0
 10
47.184761
 20
28.279668
 30
0.0
 10
47.191760
 20
28.274419
 30
0.0
 10
47.199070
 20
28.269491
 30
0.0
 10
47.206718
 20
28.264908
 30
0.0
 10
47.214648
 20
28.260697
 30
0.0
 10
47.222917
 20
28.256952
 30
0.0
 10
47.231497
 20
28.253707
 30
0.0
 10
47.240331
 20
28.250997
 30
0.0
 10
47.249333
 20
28.248852
 30
0.0
 10
47.258506
 20
28.247272
 30
0.0
 10
47.267734
 20
28.246312
 30
0.0
 10
47.277019
 20
28.246030
 30
0.0
 10
47.290735
 20
28.246425
 30
0.0
 10
47.304762
 20
28.247836
 30
0.0
 10
47.318901
 20
28.250405
 30
0.0
 10
47.333012
 20
28.254260
 30
0.0
 10
47.346926
 20
28.259551
 30
0.0
 10
47.360473
 20
28.266426
 30
0.0
 10
47.373511
 20
28.275026
 30
0.0
 10
47.385844
 20
28.285496
 30
0.0
 10
47.391461
 20
28.291251
 30
0.0
 10
47.396682
 20
28.297333
 30
0.0
 10
47.401508
 20
28.303697
 30
0.0
 10
47.405910
 20
28.310295
 30
0.0
 10
47.409890
 20
28.317085
 30
0.0
 10
47.413417
 20
28.324022
 30
0.0
 10
47.416494
 20
28.331058
 30
0.0
 10
47.419034
 20
28.338150
 30
0.0
 10
47.421291
 20
28.345285
 30
0.0
 10
47.423267
 20
28.352400
 30
0.0
 10
47.424678
 20
28.359495
 30
0.0
 10
47.425807
 20
28.366570
 30
0.0
 10
47.426654
 20
28.373623
 30
0.0
 10
47.427218
 20
28.380653
 30
0.0
 10
47.427500
 20
28.387661
 30
0.0
 10
47.427610
 20
28.394643
 30
0.0
 10
47.427610
 20
28.739383
 30
0.0
 10
47.427610
 20
29.084123
 30
0.0
 10
47.427610
 20
29.428863
 30
0.0
 10
47.427610
 20
29.773603
 30
0.0
 10
47.427610
 20
30.118343
 30
0.0
 10
47.427610
 20
30.463083
 30
0.0
 10
47.427610
 20
30.807823
 30
0.0
 10
47.427610
 20
31.152563
 30
0.0
 10
47.427328
 20
31.166192
 30
0.0
 10
47.425917
 20
31.180176
 30
0.0
 10
47.423095
 20
31.194330
 30
0.0
 10
47.419059
 20
31.208460
 30
0.0
 10
47.413556
 20
31.222377
 30
0.0
 10
47.406472
 20
31.235890
 30
0.0
 10
47.397638
 20
31.248810
 30
0.0
 10
47.386942
 20
31.260948
 30
0.0
 10
47.374807
 20
31.271627
 30
0.0
 10
47.361881
 20
31.280447
 30
0.0
 10
47.348362
 20
31.287539
 30
0.0
 10
47.334421
 20
31.293031
 30
0.0
 10
47.320281
 20
31.297056
 30
0.0
 10
47.306086
 20
31.299737
 30
0.0
 10
47.292059
 20
31.301204
 30
0.0
 10
47.278371
 20
31.301599
 30
0.0
 10
47.264712
 20
31.301204
 30
0.0
 10
47.250714
 20
31.299708
 30
0.0
 10
47.236546
 20
31.296999
 30
0.0
 10
47.222407
 20
31.292929
 30
0.0
 10
47.208493
 20
31.287384
 30
0.0
 10
47.195031
 20
31.280238
 30
0.0
 10
47.182190
 20
31.271362
 30
0.0
 10
47.170167
 20
31.260632
 30
0.0
 10
47.159584
 20
31.248479
 30
0.0
 10
47.150863
 20
31.235576
 30
0.0
 10
47.143864
 20
31.222106
 30
0.0
 10
47.138474
 20
31.208246
 30
0.0
 10
47.134523
 20
31.194180
 30
0.0
 10
47.131983
 20
31.180089
 30
0.0
 10
47.130572
 20
31.166152
 30
0.0
 10
47.130289
 20
31.152552
 30
0.0
 10
47.130289
 20
30.862061
 30
0.0
 10
47.130289
 20
30.571569
 30
0.0
 10
47.130289
 20
30.281078
 30
0.0
 10
47.130289
 20
29.990587
 30
0.0
 10
47.130289
 20
29.700095
 30
0.0
 10
47.130289
 20
29.409604
 30
0.0
 10
47.130289
 20
29.119113
 30
0.0
 10
47.130289
 20
28.828621
 30
0.0
 10
46.896177
 20
29.129475
 30
0.0
 10
46.662063
 20
29.430329
 30
0.0
 10
46.427951
 20
29.731183
 30
0.0
 10
46.193836
 20
30.032037
 30
0.0
 10
45.959725
 20
30.332890
 30
0.0
 10
45.725613
 20
30.633744
 30
0.0
 10
45.491498
 20
30.934598
 30
0.0
 10
45.257386
 20
31.235452
 30
0.0
 10
45.257316
 20
31.235558
 30
0.0
 10
45.257245
 20
31.235664
 30
0.0
 10
45.257175
 20
31.235770
 30
0.0
 10
45.257104
 20
31.235875
 30
0.0
 10
45.257034
 20
31.235981
 30
0.0
 10
45.256963
 20
31.236087
 30
0.0
 10
45.256893
 20
31.236193
 30
0.0
 10
45.256822
 20
31.236299
 30
0.0
 10
45.251347
 20
31.242756
 30
0.0
 10
45.245646
 20
31.249013
 30
0.0
 10
45.239719
 20
31.255052
 30
0.0
 10
45.233510
 20
31.260861
 30
0.0
 10
45.227048
 20
31.266418
 30
0.0
 10
45.220274
 20
31.271709
 30
0.0
 10
45.213162
 20
31.276721
 30
0.0
 10
45.205712
 20
31.281435
 30
0.0
 10
45.197950
 20
31.285784
 30
0.0
 10
45.189766
 20
31.289718
 30
0.0
 10
45.181215
 20
31.293186
 30
0.0
 10
45.172353
 20
31.296136
 30
0.0
 10
45.163237
 20
31.298506
 30
0.0
 10
45.153896
 20
31.300256
 30
0.0
 10
45.144385
 20
31.301328
 30
0.0
 10
45.134761
 20
31.301667
 30
0.0
 10
45.134747
 20
31.301664
 30
0.0
 10
45.134733
 20
31.301661
 30
0.0
 10
45.134719
 20
31.301657
 30
0.0
 10
45.134704
 20
31.301654
 30
0.0
 10
45.134690
 20
31.301651
 30
0.0
 10
45.134676
 20
31.301648
 30
0.0
 10
45.134662
 20
31.301645
 30
0.0
 10
45.134944
 20
31.301630
 30
0.0
  0
LWPOLYLINE
  5
108
100
AcDbEntity
  8
logos
 62
7
100
AcDbPolyline
 90
289
 70
0
 10
48.984828
 20
31.301630
 30
0.0
 10
48.971564
 20
31.301235
 30
0.0
 10
48.957989
 20
31.299881
 30
0.0
 10
48.944244
 20
31.297425
 30
0.0
 10
48.930472
 20
31.293728
 30
0.0
 10
48.916841
 20
31.288640
 30
0.0
 10
48.903520
 20
31.282010
 30
0.0
 10
48.890679
 20
31.273696
 30
0.0
 10
48.878458
 20
31.263547
 30
0.0
 10
48.872870
 20
31.257942
 30
0.0
 10
48.867678
 20
31.251999
 30
0.0
 10
48.862880
 20
31.245765
 30
0.0
 10
48.858505
 20
31.239290
 30
0.0
 10
48.854554
 20
31.232624
 30
0.0
 10
48.851026
 20
31.225814
 30
0.0
 10
48.847922
 20
31.218911
 30
0.0
 10
48.845382
 20
31.211966
 30
0.0
 10
48.843124
 20
31.204975
 30
0.0
 10
48.841149
 20
31.197998
 30
0.0
 10
48.839738
 20
31.191039
 30
0.0
 10
48.838609
 20
31.184105
 30
0.0
 10
48.837762
 20
31.177199
 30
0.0
 10
48.837198
 20
31.170327
 30
0.0
 10
48.836915
 20
31.163494
 30
0.0
 10
48.836800
 20
31.156704
 30
0.0
 10
48.836800
 20
30.811158
 30
0.0
 10
48.836800
 20
30.465611
 30
0.0
 10
48.836800
 20
30.120065
 30
0.0
 10
48.836800
 20
29.774519
 30
0.0
 10
48.836800
 20
29.428973
 30
0.0
 10
48.836800
 20
29.083426
 30
0.0
 10
48.836800
 20
28.737880
 30
0.0
 10
48.836800
 20
28.392334
 30
0.0
 10
48.837082
 20
28.378748
 30
0.0
 10
48.838493
 20
28.364823
 30
0.0
 10
48.841033
 20
28.350746
 30
0.0
 10
48.845012
 20
28.336700
 30
0.0
 10
48.850459
 20
28.322874
 30
0.0
 10
48.857486
 20
28.309451
 30
0.0
 10
48.866207
 20
28.296618
 30
0.0
 10
48.876762
 20
28.284562
 30
0.0
 10
48.888785
 20
28.273885
 30
0.0
 10
48.901626
 20
28.265049
 30
0.0
 10
48.915088
 20
28.257929
 30
0.0
 10
48.928973
 20
28.252400
 30
0.0
 10
48.943084
 20
28.248339
 30
0.0
 10
48.957252
 20
28.245629
 30
0.0
 10
48.971278
 20
28.244134
 30
0.0
 10
48.984994
 20
28.243739
 30
0.0
 10
48.998710
 20
28.244134
 30
0.0
 10
49.012737
 20
28.245629
 30
0.0
 10
49.026933
 20
28.248339
 30
0.0
 10
49.041072
 20
28.252397
 30
0.0
 10
49.054986
 20
28.257926
 30
0.0
 10
49.068476
 20
28.265046
 30
0.0
 10
49.081345
 20
28.273883
 30
0.0
 10
49.093396
 20
28.284562
 30
0.0
 10
49.103979
 20
28.296669
 30
0.0
 10
49.112728
 20
28.309530
 30
0.0
 10
49.119784
 20
28.322964
 30
0.0
 10
49.125259
 20
28.336787
 30
0.0
 10
49.129266
 20
28.350816
 30
0.0
 10
49.131806
 20
28.364871
 30
0.0
 10
49.133218
 20
28.378771
 30
0.0
 10
49.133500
 20
28.392329
 30
0.0
 10
49.133500
 20
28.718570
 30
0.0
 10
49.133500
 20
29.044812
 30
0.0
 10
49.133500
 20
29.371053
 30
0.0
 10
49.133500
 20
29.697294
 30
0.0
 10
49.133500
 20
30.023536
 30
0.0
 10
49.133500
 20
30.349777
 30
0.0
 10
49.133500
 20
30.676019
 30
0.0
 10
49.133500
 20
31.002260
 30
0.0
 10
49.210699
 20
31.002260
 30
0.0
 10
49.287898
 20
31.002260
 30
0.0
 10
49.365097
 20
31.002260
 30
0.0
 10
49.442296
 20
31.002260
 30
0.0
 10
49.519498
 20
31.002260
 30
0.0
 10
49.596697
 20
31.002260
 30
0.0
 10
49.673896
 20
31.002260
 30
0.0
 10
49.751095
 20
31.002260
 30
0.0
 10
49.814127
 20
30.999238
 30
0.0
 10
49.874356
 20
30.990754
 30
0.0
 10
49.931966
 20
30.976739
 30
0.0
 10
49.987129
 20
30.957119
 30
0.0
 10
50.040029
 20
30.931818
 30
0.0
 10
50.090843
 20
30.900765
 30
0.0
 10
50.139749
 20
30.863887
 30
0.0
 10
50.186928
 20
30.821111
 30
0.0
 10
50.229987
 20
30.773814
 30
0.0
 10
50.267091
 20
30.724936
 30
0.0
 10
50.298318
 20
30.674269
 30
0.0
 10
50.323747
 20
30.621604
 30
0.0
 10
50.343446
 20
30.566734
 30
0.0
 10
50.357500
 20
30.509450
 30
0.0
 10
50.365995
 20
30.449546
 30
0.0
 10
50.368987
 20
30.386814
 30
0.0
 10
50.365967
 20
30.323890
 30
0.0
 10
50.357472
 20
30.263867
 30
0.0
 10
50.343418
 20
30.206524
 30
0.0
 10
50.323718
 20
30.151637
 30
0.0
 10
50.298318
 20
30.098984
 30
0.0
 10
50.267102
 20
30.048343
 30
0.0
 10
50.229995
 20
29.999492
 30
0.0
 10
50.186911
 20
29.952208
 30
0.0
 10
50.139766
 20
29.909394
 30
0.0
 10
50.090885
 20
29.872490
 30
0.0
 10
50.040085
 20
29.841421
 30
0.0
 10
49.987191
 20
29.816114
 30
0.0
 10
49.932022
 20
29.796500
 30
0.0
 10
49.874398
 20
29.782502
 30
0.0
 10
49.814144
 20
29.774046
 30
0.0
 10
49.751078
 20
29.771060
 30
0.0
 10
49.695390
 20
29.771060
 30
0.0
 10
49.639702
 20
29.771060
 30
0.0
 10
49.584014
 20
29.771060
 30
0.0
 10
49.528326
 20
29.771060
 30
0.0
 10
49.472638
 20
29.771060
 30
0.0
 10
49.416950
 20
29.771060
 30
0.0
 10
49.361262
 20
29.771060
 30
0.0
 10
49.305574
 20
29.771060
 30
0.0
 10
49.290842
 20
29.770665
 30
0.0
 10
49.276053
 20
29.769423
 30
0.0
 10
49.261293
 20
29.767194
 30
0.0
 10
49.246617
 20
29.763799
 30
0.0
 10
49.232139
 20
29.759077
 30
0.0
 10
49.217915
 20
29.752865
 30
0.0
 10
49.204030
 20
29.744994
 30
0.0
 10
49.190568
 20
29.735300
 30
0.0
 10
49.184246
 20
29.729797
 30
0.0
 10
49.178291
 20
29.723856
 30
0.0
 10
49.172703
 20
29.717531
 30
0.0
 10
49.167539
 20
29.710871
 30
0.0
 10
49.162797
 20
29.703925
 30
0.0
 10
49.158508
 20
29.696743
 30
0.0
 10
49.154698
 20
29.689377
 30
0.0
 10
49.151396
 20
29.681875
 30
0.0
 10
49.148573
 20
29.674264
 30
0.0
 10
49.146316
 20
29.666632
 30
0.0
 10
49.144340
 20
29.658993
 30
0.0
 10
49.142929
 20
29.651359
 30
0.0
 10
49.141800
 20
29.643739
 30
0.0
 10
49.140953
 20
29.636147
 30
0.0
 10
49.140389
 20
29.628592
 30
0.0
 10
49.140251
 20
29.621085
 30
0.0
 10
49.140533
 20
29.611994
 30
0.0
 10
49.141379
 20
29.603073
 30
0.0
 10
49.142791
 20
29.594350
 30
0.0
 10
49.144766
 20
29.585855
 30
0.0
 10
49.147306
 20
29.577620
 30
0.0
 10
49.150298
 20
29.569672
 30
0.0
 10
49.153684
 20
29.562044
 30
0.0
 10
49.157410
 20
29.554765
 30
0.0
 10
49.161333
 20
29.547983
 30
0.0
 10
49.165538
 20
29.541470
 30
0.0
 10
49.169969
 20
29.535199
 30
0.0
 10
49.174653
 20
29.529148
 30
0.0
 10
49.179536
 20
29.523297
 30
0.0
 10
49.184616
 20
29.517622
 30
0.0
 10
49.189893
 20
29.512102
 30
0.0
 10
49.195312
 20
29.506714
 30
0.0
 10
49.195287
 20
29.506694
 30
0.0
 10
49.195258
 20
29.506674
 30
0.0
 10
49.195233
 20
29.506655
 30
0.0
 10
49.195208
 20
29.506635
 30
0.0
 10
49.195182
 20
29.506615
 30
0.0
 10
49.195154
 20
29.506595
 30
0.0
 10
49.195129
 20
29.506576
 30
0.0
 10
49.195103
 20
29.506556
 30
0.0
 10
49.347046
 20
29.354440
 30
0.0
 10
49.498989
 20
29.202325
 30
0.0
 10
49.650932
 20
29.050209
 30
0.0
 10
49.802874
 20
28.898093
 30
0.0
 10
49.954817
 20
28.745978
 30
0.0
 10
50.106760
 20
28.593862
 30
0.0
 10
50.258703
 20
28.441746
 30
0.0
 10
50.410646
 20
28.289631
 30
0.0
 10
50.410753
 20
28.289525
 30
0.0
 10
50.410857
 20
28.289419
 30
0.0
 10
50.410962
 20
28.289313
 30
0.0
 10
50.411069
 20
28.289207
 30
0.0
 10
50.411173
 20
28.289101
 30
0.0
 10
50.411281
 20
28.288996
 30
0.0
 10
50.411385
 20
28.288890
 30
0.0
 10
50.411492
 20
28.288784
 30
0.0
 10
50.421229
 20
28.279674
 30
0.0
 10
50.432151
 20
28.271162
 30
0.0
 10
50.444117
 20
28.263446
 30
0.0
 10
50.457043
 20
28.256721
 30
0.0
 10
50.470787
 20
28.251184
 30
0.0
 10
50.485265
 20
28.247029
 30
0.0
 10
50.500336
 20
28.244461
 30
0.0
 10
50.515886
 20
28.243671
 30
0.0
 10
50.529631
 20
28.244066
 30
0.0
 10
50.543742
 20
28.245562
 30
0.0
 10
50.557994
 20
28.248271
 30
0.0
 10
50.572218
 20
28.252335
 30
0.0
 10
50.586216
 20
28.257889
 30
0.0
 10
50.599791
 20
28.265066
 30
0.0
 10
50.612745
 20
28.274004
 30
0.0
 10
50.624881
 20
28.284833
 30
0.0
 10
50.635577
 20
28.297098
 30
0.0
 10
50.644410
 20
28.310134
 30
0.0
 10
50.651494
 20
28.323757
 30
0.0
 10
50.656969
 20
28.337783
 30
0.0
 10
50.660977
 20
28.352033
 30
0.0
 10
50.663799
 20
28.366322
 30
0.0
 10
50.665210
 20
28.380470
 30
0.0
 10
50.665492
 20
28.394293
 30
0.0
 10
50.664928
 20
28.408901
 30
0.0
 10
50.662670
 20
28.423331
 30
0.0
 10
50.658888
 20
28.437422
 30
0.0
 10
50.653780
 20
28.451014
 30
0.0
 10
50.647515
 20
28.463942
 30
0.0
 10
50.640233
 20
28.476050
 30
0.0
 10
50.632077
 20
28.487172
 30
0.0
 10
50.623215
 20
28.497149
 30
0.0
 10
50.623108
 20
28.497290
 30
0.0
 10
50.623004
 20
28.497431
 30
0.0
 10
50.622897
 20
28.497572
 30
0.0
 10
50.622792
 20
28.497713
 30
0.0
 10
50.622685
 20
28.497854
 30
0.0
 10
50.622580
 20
28.497995
 30
0.0
 10
50.622476
 20
28.498136
 30
0.0
 10
50.622369
 20
28.498278
 30
0.0
 10
50.500553
 20
28.619959
 30
0.0
 10
50.378738
 20
28.741639
 30
0.0
 10
50.256922
 20
28.863320
 30
0.0
 10
50.135106
 20
28.985001
 30
0.0
 10
50.013294
 20
29.106682
 30
0.0
 10
49.891478
 20
29.228362
 30
0.0
 10
49.769663
 20
29.350043
 30
0.0
 10
49.647847
 20
29.471724
 30
0.0
 10
49.660575
 20
29.471724
 30
0.0
 10
49.673303
 20
29.471724
 30
0.0
 10
49.686032
 20
29.471724
 30
0.0
 10
49.698760
 20
29.471724
 30
0.0
 10
49.711488
 20
29.471724
 30
0.0
 10
49.724216
 20
29.471724
 30
0.0
 10
49.736945
 20
29.471724
 30
0.0
 10
49.749673
 20
29.471724
 30
0.0
 10
49.842140
 20
29.475740
 30
0.0
 10
49.931717
 20
29.488364
 30
0.0
 10
50.018210
 20
29.509511
 30
0.0
 10
50.101418
 20
29.539094
 30
0.0
 10
50.181145
 20
29.577027
 30
0.0
 10
50.257201
 20
29.623226
 30
0.0
 10
50.329388
 20
29.677603
 30
0.0
 10
50.397511
 20
29.740074
 30
0.0
 10
50.459930
 20
29.807976
 30
0.0
 10
50.514261
 20
29.879986
 30
0.0
 10
50.560418
 20
29.955900
 30
0.0
 10
50.598321
 20
30.035511
 30
0.0
 10
50.627881
 20
30.118616
 30
0.0
 10
50.649019
 20
30.205008
 30
0.0
 10
50.661663
 20
30.294484
 30
0.0
 10
50.665698
 20
30.386837
 30
0.0
 10
50.661691
 20
30.479238
 30
0.0
 10
50.649075
 20
30.568744
 30
0.0
 10
50.627937
 20
30.655153
 30
0.0
 10
50.598374
 20
30.738267
 30
0.0
 10
50.560463
 20
30.817884
 30
0.0
 10
50.514292
 20
30.893805
 30
0.0
 10
50.459941
 20
30.965829
 30
0.0
 10
50.397503
 20
31.033755
 30
0.0
 10
50.329501
 20
31.096072
 30
0.0
 10
50.257441
 20
31.150325
 30
0.0
 10
50.181512
 20
31.196428
 30
0.0
 10
50.101906
 20
31.234294
 30
0.0
 10
50.018820
 20
31.263835
 30
0.0
 10
49.932443
 20
31.284965
 30
0.0
 10
49.842967
 20
31.297594
 30
0.0
 10
49.750584
 20
31.301641
 30
0.0
 10
49.654790
 20
31.301641
 30
0.0
 10
49.558995
 20
31.301641
 30
0.0
 10
49.463203
 20
31.301641
 30
0.0
 10
49.367408
 20
31.301641
 30
0.0
 10
49.271614
 20
31.301641
 30
0.0
 10
49.175822
 20
31.301641
 30
0.0
 10
49.080027
 20
31.301641
 30
0.0
 10
48.984232
 20
31.301641
 30
0.0
 10
48.984235
 20
31.301645
 30
0.0
 10
48.984241
 20
31.301649
 30
0.0
 10
48.984244
 20
31.301653
 30
0.0
 10
48.984247
 20
31.301657
 30
0.0
 10
48.984252
 20
31.301661
 30
0.0
 10
48.984255
 20
31.301665
 30
0.0
 10
48.984261
 20
31.301668
 30
0.0
 10
48.984825
 20
31.301630
 30
0.0
  0
LWPOLYLINE
  5
109
100
AcDbEntity
  8
logos
 62
7
100
AcDbPolyline
 90
73
 70
0
 10
34.901234
 20
31.002274
 30
0.0
 10
34.997604
 20
31.002274
 30
0.0
 10
35.093974
 20
31.002274
 30
0.0
 10
35.190342
 20
31.002274
 30
0.0
 10
35.286712
 20
31.002274
 30
0.0
 10
35.383083
 20
31.002274
 30
0.0
 10
35.479453
 20
31.002274
 30
0.0
 10
35.575821
 20
31.002274
 30
0.0
 10
35.672191
 20
31.002274
 30
0.0
 10
35.798012
 20
30.996461
 30
0.0
 10
35.918580
 20
30.979606
 30
0.0
 10
36.034082
 20
30.951638
 30
0.0
 10
36.144710
 20
30.912486
 30
0.0
 10
36.250659
 20
30.862077
 30
0.0
 10
36.352115
 20
30.800338
 30
0.0
 10
36.449273
 20
30.727198
 30
0.0
 10
36.542322
 20
30.642584
 30
0.0
 10
36.627324
 20
30.549367
 30
0.0
 10
36.700739
 20
30.452193
 30
0.0
 10
36.762661
 20
30.350843
 30
0.0
 10
36.813176
 20
30.245100
 30
0.0
 10
36.852371
 20
30.134745
 30
0.0
 10
36.880339
 20
30.019561
 30
0.0
 10
36.897160
 20
29.899330
 30
0.0
 10
36.902945
 20
29.773834
 30
0.0
 10
36.897132
 20
29.648251
 30
0.0
 10
36.880283
 20
29.527932
 30
0.0
 10
36.852287
 20
29.412683
 30
0.0
 10
36.813077
 20
29.302310
 30
0.0
 10
36.762562
 20
29.196619
 30
0.0
 10
36.700657
 20
29.095416
 30
0.0
 10
36.627282
 20
28.998507
 30
0.0
 10
36.542344
 20
28.905699
 30
0.0
 10
36.542325
 20
28.905679
 30
0.0
 10
36.542305
 20
28.905660
 30
0.0
 10
36.542285
 20
28.905640
 30
0.0
 10
36.542265
 20
28.905621
 30
0.0
 10
36.542246
 20
28.905602
 30
0.0
 10
36.542226
 20
28.905582
 30
0.0
 10
36.542206
 20
28.905563
 30
0.0
 10
36.542186
 20
28.905543
 30
0.0
 10
36.449174
 20
28.820611
 30
0.0
 10
36.352048
 20
28.747245
 30
0.0
 10
36.250617
 20
28.685358
 30
0.0
 10
36.144691
 20
28.634864
 30
0.0
 10
36.034079
 20
28.595677
 30
0.0
 10
35.918588
 20
28.567709
 30
0.0
 10
35.798028
 20
28.550874
 30
0.0
 10
35.672211
 20
28.545086
 30
0.0
 10
35.575841
 20
28.545086
 30
0.0
 10
35.479470
 20
28.545086
 30
0.0
 10
35.383100
 20
28.545086
 30
0.0
 10
35.286732
 20
28.545086
 30
0.0
 10
35.190362
 20
28.545086
 30
0.0
 10
35.093991
 20
28.545086
 30
0.0
 10
34.997621
 20
28.545086
 30
0.0
 10
34.901250
 20
28.545086
 30
0.0
 10
34.901250
 20
28.852234
 30
0.0
 10
34.901250
 20
29.159382
 30
0.0
 10
34.901250
 20
29.466529
 30
0.0
 10
34.901250
 20
29.773677
 30
0.0
 10
34.901250
 20
30.080825
 30
0.0
 10
34.901250
 20
30.387972
 30
0.0
 10
34.901250
 20
30.695120
 30
0.0
 10
34.901250
 20
31.002268
 30
0.0
 10
34.901250
 20
31.002269
 30
0.0
 10
34.901253
 20
31.002269
 30
0.0
 10
34.901253
 20
31.002270
 30
0.0
 10
34.901253
 20
31.002271
 30
0.0
 10
34.901253
 20
31.002271
 30
0.0
 10
34.901256
 20
31.002272
 30
0.0
 10
34.901256
 20
31.002273
 30
0.0
 10
34.901234
 20
31.002274
 30
0.0
  0
ENDSEC
  0
SECTION
  2
OBJECTS
  0
DICTIONARY
  5
C
330
0
100
AcDbDictionary
  3
ACAD_GROUP
350
D
  3
ACAD_MLINESTYLE
350
17
  0
DICTIONARY
  5
D
330
C
100
AcDbDictionary
  0
DICTIONARY
  5
1A
330
C
100
AcDbDictionary
  0
DICTIONARY
  5
17
330
C
100
AcDbDictionary
  3
STANDARD
350
18
  0
DICTIONARY
  5
19
330
C
100
AcDbDictionary
  0
ENDSEC
  0
EOF
