  0
SECTION
  2
HEADER
  9
$ACADVER
  1
AC1014
  9
$HANDSEED
  5
FFFF
  9
$MEASUREMENT
 70
     1
  0
ENDSEC
  0
SECTION
  2
TABLES
  0
TABLE
  2
VPORT
  5
8
330
0
100
AcDbSymbolTable
 70
     4
  0
VPORT
  5
2E
330
8
100
AcDbSymbolTableRecord
100
AcDbViewportTableRecord
  2
*ACTIVE
 70
     0
 10
0.0
 20
0.0
 11
1.0
 21
1.0
 12
210.0
 22
148.5
 13
0.0
 23
0.0
 14
10.0
 24
10.0
 15
10.0
 25
10.0
 16
0.0
 26
0.0
 36
1.0
 17
0.0
 27
0.0
 37
0.0
 40
341.0
 41
1.24
 42
50.0
 43
0.0
 44
0.0
 50
0.0
 51
0.0
 71
     0
 72
   100
 73
     1
 74
     3
 75
     0
 76
     0
 77
     0
 78
     0
  0
ENDTAB
  0
TABLE
  2
LTYPE
  5
5
330
0
100
AcDbSymbolTable
 70
     1
  0
LTYPE
  5
14
330
5
100
AcDbSymbolTableRecord
100
AcDbLinetypeTableRecord
  2
BYBLOCK
 70
     0
  3

 72
    65
 73
     0
 40
0.0
  0
LTYPE
  5
15
330
5
100
AcDbSymbolTableRecord
100
AcDbLinetypeTableRecord
  2
BYLAYER
 70
     0
  3

 72
    65
 73
     0
 40
0.0
  0
LTYPE
  5
16
330
5
100
AcDbSymbolTableRecord
100
AcDbLinetypeTableRecord
  2
CONTINUOUS
 70
     0
  3
Solid line
 72
    65
 73
     0
 40
0.0
  0
ENDTAB
  0
TABLE
  2
LAYER
  5
2
100
AcDbSymbolTable
 70
5
  0
LAYER
  5
50
100
AcDbSymbolTableRecord
100
AcDbLayerTableRecord
  2
0
 70
0
  6
CONTINUOUS
  0
LAYER
  5
51
100
AcDbSymbolTableRecord
100
AcDbLayerTableRecord
  2
Artwork
 70
0
  6
CONTINUOUS
  0
LAYER
  5
52
100
AcDbSymbolTableRecord
100
AcDbLayerTableRecord
  2
Background
 70
0
  6
CONTINUOUS
  0
LAYER
  5
53
100
AcDbSymbolTableRecord
100
AcDbLayerTableRecord
  2
logos
 70
0
  6
CONTINUOUS
  0
LAYER
  5
54
100
AcDbSymbolTableRecord
100
AcDbLayerTableRecord
  2
Template_text
 70
0
  6
CONTINUOUS
  0
ENDTAB
  0
TABLE
  2
STYLE
  5
3
330
0
100
AcDbSymbolTable
 70
     1
  0
STYLE
  5
11
330
3
100
AcDbSymbolTableRecord
100
AcDbTextStyleTableRecord
  2
STANDARD
 70
     0
 40
0.0
 41
1.0
 50
0.0
 71
     0
 42
2.5
  3
txt
  4

  0
ENDTAB
  0
TABLE
  2
VIEW
  5
6
330
0
100
AcDbSymbolTable
 70
     0
  0
ENDTAB
  0
TABLE
  2
UCS
  5
7
330
0
100
AcDbSymbolTable
 70
     0
  0
ENDTAB
  0
TABLE
  2
APPID
  5
9
330
0
100
AcDbSymbolTable
 70
     2
  0
APPID
  5
12
330
9
100
AcDbSymbolTableRecord
100
AcDbRegAppTableRecord
  2
ACAD
 70
     0
  0
ENDTAB
  0
TABLE
  2
DIMSTYLE
  5
A
330
0
100
AcDbSymbolTable
 70
     1
  0
DIMSTYLE
105
27
330
A
100
AcDbSymbolTableRecord
100
AcDbDimStyleTableRecord
  2
ISO-25
 70
     0
  3

  4

  5

  6

  7

 40
1.0
 41
2.5
 42
0.625
 43
3.75
 44
1.25
 45
0.0
 46
0.0
 47
0.0
 48
0.0
140
2.5
141
2.5
142
0.0
143
0.03937007874016
144
1.0
145
0.0
146
1.0
147
0.625
 71
     0
 72
     0
 73
     0
 74
     0
 75
     0
 76
     0
 77
     1
 78
     8
170
     0
171
     3
172
     1
173
     0
174
     0
175
     0
176
     0
177
     0
178
     0
270
     2
271
     2
272
     2
273
     2
274
     3
340
11
275
     0
280
     0
281
     0
282
     0
283
     0
284
     8
285
     0
286
     0
287
     3
288
     0
  0
ENDTAB
  0
TABLE
  2
BLOCK_RECORD
  5
1
330
0
100
AcDbSymbolTable
 70
     1
  0
BLOCK_RECORD
  5
1F
330
1
100
AcDbSymbolTableRecord
100
AcDbBlockTableRecord
  2
*MODEL_SPACE
  0
BLOCK_RECORD
  5
1B
330
1
100
AcDbSymbolTableRecord
100
AcDbBlockTableRecord
  2
*PAPER_SPACE
  0
ENDTAB
  0
ENDSEC
  0
SECTION
  2
BLOCKS
  0
BLOCK
  5
20
330
1F
100
AcDbEntity
  8
0
100
AcDbBlockBegin
  2
*MODEL_SPACE
 70
     0
 10
0.0
 20
0.0
 30
0.0
  3
*MODEL_SPACE
  1

  0
ENDBLK
  5
21
330
1F
100
AcDbEntity
  8
0
100
AcDbBlockEnd
  0
BLOCK
  5
1C
330
1B
100
AcDbEntity
 67
     1
  8
0
100
AcDbBlockBegin
  2
*PAPER_SPACE
  1

  0
ENDBLK
  5
1D
330
1B
100
AcDbEntity
 67
     1
  8
0
100
AcDbBlockEnd
  0
ENDSEC
  0
SECTION
  2
ENTITIES
  0
LWPOLYLINE
  5
100
100
AcDbEntity
  8
Background
 62
7
100
AcDbPolyline
 90
18
 70
0
 10
28.453436
 20
41.675283
 30
0.0
 10
28.374436
 20
42.210520
 30
0.0
 10
28.152441
 20
42.610045
 30
0.0
 10
27.809959
 20
42.859955
 30
0.0
 10
27.369500
 20
42.946348
 30
0.0
 10
26.925896
 20
42.858852
 30
0.0
 10
26.579939
 20
42.606515
 30
0.0
 10
26.355130
 20
42.204562
 30
0.0
 10
26.274971
 20
41.668221
 30
0.0
 10
26.354027
 20
41.132984
 30
0.0
 10
26.576408
 20
40.733459
 30
0.0
 10
26.919938
 20
40.483549
 30
0.0
 10
27.362438
 20
40.397156
 30
0.0
 10
27.804001
 20
40.484652
 30
0.0
 10
28.148910
 20
40.736989
 30
0.0
 10
28.373333
 20
41.138942
 30
0.0
 10
28.453436
 20
41.675283
 30
0.0
 10
28.453436
 20
41.675283
 30
0.0
  0
LWPOLYLINE
  5
101
100
AcDbEntity
  8
Background
 62
7
100
AcDbPolyline
 90
18
 70
0
 10
27.945010
 20
41.668221
 30
0.0
 10
27.903745
 20
41.334787
 30
0.0
 10
27.787009
 20
41.090063
 30
0.0
 10
27.605397
 20
40.939345
 30
0.0
 10
27.369500
 20
40.887928
 30
0.0
 10
27.131947
 20
40.940448
 30
0.0
 10
26.946694
 20
41.093594
 30
0.0
 10
26.826318
 20
41.340745
 30
0.0
 10
26.783397
 20
41.675283
 30
0.0
 10
26.824663
 20
42.008717
 30
0.0
 10
26.941398
 20
42.253441
 30
0.0
 10
27.123010
 20
42.404159
 30
0.0
 10
27.358908
 20
42.455576
 30
0.0
 10
27.596460
 20
42.403056
 30
0.0
 10
27.781713
 20
42.249910
 30
0.0
 10
27.902089
 20
42.002759
 30
0.0
 10
27.945010
 20
41.668221
 30
0.0
 10
27.945010
 20
41.668221
 30
0.0
  0
LWPOLYLINE
  5
102
100
AcDbEntity
  8
Background
 62
7
100
AcDbPolyline
 90
30
 70
0
 10
31.076421
 20
42.123686
 30
0.0
 10
31.009006
 20
42.468099
 30
0.0
 10
30.825739
 20
42.712878
 30
0.0
 10
30.555085
 20
42.859018
 30
0.0
 10
30.225513
 20
42.907510
 30
0.0
 10
29.955412
 20
42.907510
 30
0.0
 10
29.685310
 20
42.907510
 30
0.0
 10
29.415209
 20
42.907510
 30
0.0
 10
29.145108
 20
42.907510
 30
0.0
 10
29.145108
 20
42.289631
 30
0.0
 10
29.145108
 20
41.671752
 30
0.0
 10
29.145108
 20
41.053873
 30
0.0
 10
29.145108
 20
40.435994
 30
0.0
 10
29.268683
 20
40.435994
 30
0.0
 10
29.392259
 20
40.435994
 30
0.0
 10
29.515835
 20
40.435994
 30
0.0
 10
29.639411
 20
40.435994
 30
0.0
 10
29.639411
 20
40.654900
 30
0.0
 10
29.639411
 20
40.873805
 30
0.0
 10
29.639411
 20
41.092711
 30
0.0
 10
29.639411
 20
41.311617
 30
0.0
 10
29.775344
 20
41.311617
 30
0.0
 10
29.911278
 20
41.311617
 30
0.0
 10
30.047211
 20
41.311617
 30
0.0
 10
30.183144
 20
41.311617
 30
0.0
 10
30.538701
 20
41.358068
 30
0.0
 10
30.821766
 20
41.503159
 30
0.0
 10
31.008840
 20
41.755497
 30
0.0
 10
31.076421
 20
42.123686
 30
0.0
 10
31.076421
 20
42.123686
 30
0.0
  0
LWPOLYLINE
  5
103
100
AcDbEntity
  8
Background
 62
7
100
AcDbPolyline
 90
22
 70
0
 10
30.567995
 20
42.113094
 30
0.0
 10
30.545099
 20
41.972030
 30
0.0
 10
30.477518
 20
41.871680
 30
0.0
 10
30.366907
 20
41.811713
 30
0.0
 10
30.214920
 20
41.791797
 30
0.0
 10
30.071042
 20
41.791797
 30
0.0
 10
29.927165
 20
41.791797
 30
0.0
 10
29.783287
 20
41.791797
 30
0.0
 10
29.639409
 20
41.791797
 30
0.0
 10
29.639409
 20
41.950680
 30
0.0
 10
29.639409
 20
42.109563
 30
0.0
 10
29.639409
 20
42.268446
 30
0.0
 10
29.639409
 20
42.427330
 30
0.0
 10
29.781522
 20
42.427330
 30
0.0
 10
29.923634
 20
42.427330
 30
0.0
 10
30.065746
 20
42.427330
 30
0.0
 10
30.207858
 20
42.427330
 30
0.0
 10
30.356480
 20
42.408518
 30
0.0
 10
30.470015
 20
42.350978
 30
0.0
 10
30.542506
 20
42.253055
 30
0.0
 10
30.567994
 20
42.113094
 30
0.0
 10
30.567995
 20
42.113094
 30
0.0
  0
LWPOLYLINE
  5
104
100
AcDbEntity
  8
Background
 62
7
100
AcDbPolyline
 90
49
 70
0
 10
33.460022
 20
40.435994
 30
0.0
 10
33.460022
 20
40.556922
 30
0.0
 10
33.460022
 20
40.677849
 30
0.0
 10
33.460022
 20
40.798777
 30
0.0
 10
33.460022
 20
40.919705
 30
0.0
 10
33.141373
 20
40.919705
 30
0.0
 10
32.822724
 20
40.919705
 30
0.0
 10
32.504075
 20
40.919705
 30
0.0
 10
32.185425
 20
40.919705
 30
0.0
 10
32.185425
 20
41.068879
 30
0.0
 10
32.185425
 20
41.218052
 30
0.0
 10
32.185425
 20
41.367226
 30
0.0
 10
32.185425
 20
41.516400
 30
0.0
 10
32.362845
 20
41.516400
 30
0.0
 10
32.540265
 20
41.516400
 30
0.0
 10
32.717684
 20
41.516400
 30
0.0
 10
32.895104
 20
41.516400
 30
0.0
 10
32.895104
 20
41.636445
 30
0.0
 10
32.895104
 20
41.756490
 30
0.0
 10
32.895104
 20
41.876535
 30
0.0
 10
32.895104
 20
41.996580
 30
0.0
 10
32.717684
 20
41.996580
 30
0.0
 10
32.540265
 20
41.996580
 30
0.0
 10
32.362845
 20
41.996580
 30
0.0
 10
32.185425
 20
41.996580
 30
0.0
 10
32.185425
 20
42.103385
 30
0.0
 10
32.185425
 20
42.210189
 30
0.0
 10
32.185425
 20
42.316994
 30
0.0
 10
32.185425
 20
42.423799
 30
0.0
 10
32.490834
 20
42.423799
 30
0.0
 10
32.796243
 20
42.423799
 30
0.0
 10
33.101652
 20
42.423799
 30
0.0
 10
33.407061
 20
42.423799
 30
0.0
 10
33.407061
 20
42.544727
 30
0.0
 10
33.407061
 20
42.665655
 30
0.0
 10
33.407061
 20
42.786582
 30
0.0
 10
33.407061
 20
42.907510
 30
0.0
 10
32.978076
 20
42.907510
 30
0.0
 10
32.549091
 20
42.907510
 30
0.0
 10
32.120107
 20
42.907510
 30
0.0
 10
31.691122
 20
42.907510
 30
0.0
 10
31.691122
 20
42.289631
 30
0.0
 10
31.691122
 20
41.671752
 30
0.0
 10
31.691122
 20
41.053873
 30
0.0
 10
31.691122
 20
40.435994
 30
0.0
 10
32.133347
 20
40.435994
 30
0.0
 10
32.575572
 20
40.435994
 30
0.0
 10
33.017797
 20
40.435994
 30
0.0
 10
33.460022
 20
40.435994
 30
0.0
  0
LWPOLYLINE
  5
105
100
AcDbEntity
  8
Background
 62
7
100
AcDbPolyline
 90
57
 70
0
 10
36.153268
 20
40.435994
 30
0.0
 10
36.153268
 20
41.053873
 30
0.0
 10
36.153268
 20
41.671752
 30
0.0
 10
36.153268
 20
42.289631
 30
0.0
 10
36.153268
 20
42.907510
 30
0.0
 10
36.031458
 20
42.907510
 30
0.0
 10
35.909647
 20
42.907510
 30
0.0
 10
35.787837
 20
42.907510
 30
0.0
 10
35.666027
 20
42.907510
 30
0.0
 10
35.666027
 20
42.646235
 30
0.0
 10
35.666027
 20
42.384961
 30
0.0
 10
35.666027
 20
42.123686
 30
0.0
 10
35.666027
 20
41.862412
 30
0.0
 10
35.667136
 20
41.732823
 30
0.0
 10
35.669557
 20
41.575098
 30
0.0
 10
35.671978
 20
41.425980
 30
0.0
 10
35.673088
 20
41.322209
 30
0.0
 10
35.641090
 20
41.379694
 30
0.0
 10
35.597177
 20
41.451081
 30
0.0
 10
35.547968
 20
41.527764
 30
0.0
 10
35.500082
 20
41.601137
 30
0.0
 10
35.281176
 20
41.927730
 30
0.0
 10
35.062271
 20
42.254324
 30
0.0
 10
34.843365
 20
42.580917
 30
0.0
 10
34.624459
 20
42.907510
 30
0.0
 10
34.506179
 20
42.907510
 30
0.0
 10
34.387900
 20
42.907510
 30
0.0
 10
34.269620
 20
42.907510
 30
0.0
 10
34.151340
 20
42.907510
 30
0.0
 10
34.151340
 20
42.289631
 30
0.0
 10
34.151340
 20
41.671752
 30
0.0
 10
34.151340
 20
41.053873
 30
0.0
 10
34.151340
 20
40.435994
 30
0.0
 10
34.273151
 20
40.435994
 30
0.0
 10
34.394961
 20
40.435994
 30
0.0
 10
34.516772
 20
40.435994
 30
0.0
 10
34.638582
 20
40.435994
 30
0.0
 10
34.638582
 20
40.707861
 30
0.0
 10
34.638582
 20
40.979727
 30
0.0
 10
34.638582
 20
41.251594
 30
0.0
 10
34.638582
 20
41.523461
 30
0.0
 10
34.637472
 20
41.653050
 30
0.0
 10
34.635051
 20
41.810775
 30
0.0
 10
34.632630
 20
41.959893
 30
0.0
 10
34.631521
 20
42.063664
 30
0.0
 10
34.663519
 20
42.006179
 30
0.0
 10
34.707433
 20
41.934792
 30
0.0
 10
34.756643
 20
41.858109
 30
0.0
 10
34.804528
 20
41.784736
 30
0.0
 10
35.031378
 20
41.447550
 30
0.0
 10
35.258228
 20
41.110365
 30
0.0
 10
35.485078
 20
40.773179
 30
0.0
 10
35.711926
 20
40.435994
 30
0.0
 10
35.822262
 20
40.435994
 30
0.0
 10
35.932597
 20
40.435994
 30
0.0
 10
36.042933
 20
40.435994
 30
0.0
 10
36.153268
 20
40.435994
 30
0.0
  0
LWPOLYLINE
  5
106
100
AcDbEntity
  8
Background
 62
7
100
AcDbPolyline
 90
58
 70
0
 10
39.977057
 20
41.184510
 30
0.0
 10
39.903076
 20
41.517172
 30
0.0
 10
39.710927
 20
41.732657
 30
0.0
 10
39.445295
 20
41.864729
 30
0.0
 10
39.150864
 20
41.947149
 30
0.0
 10
38.907740
 20
42.010372
 30
0.0
 10
38.754980
 20
42.071608
 30
0.0
 10
38.675704
 20
42.144760
 30
0.0
 10
38.653030
 20
42.243731
 30
0.0
 10
38.670959
 20
42.324663
 30
0.0
 10
38.730265
 20
42.395994
 30
0.0
 10
38.839221
 20
42.446804
 30
0.0
 10
39.006104
 20
42.466168
 30
0.0
 10
39.166807
 20
42.449287
 30
0.0
 10
39.311954
 20
42.399967
 30
0.0
 10
39.444522
 20
42.320194
 30
0.0
 10
39.567491
 20
42.211955
 30
0.0
 10
39.656642
 20
42.298458
 30
0.0
 10
39.745793
 20
42.384961
 30
0.0
 10
39.834944
 20
42.471464
 30
0.0
 10
39.924095
 20
42.557967
 30
0.0
 10
39.739228
 20
42.721429
 30
0.0
 10
39.530859
 20
42.843515
 30
0.0
 10
39.294024
 20
42.919923
 30
0.0
 10
39.023757
 20
42.946348
 30
0.0
 10
38.680283
 20
42.896311
 30
0.0
 10
38.399700
 20
42.752599
 30
0.0
 10
38.210474
 20
42.524811
 30
0.0
 10
38.141073
 20
42.222547
 30
0.0
 10
38.197841
 20
41.916587
 30
0.0
 10
38.356889
 20
41.710590
 30
0.0
 10
38.601338
 20
41.576091
 30
0.0
 10
38.914305
 20
41.484623
 30
0.0
 10
39.196984
 20
41.409871
 30
0.0
 10
39.364474
 20
41.336773
 30
0.0
 10
39.444577
 20
41.253746
 30
0.0
 10
39.465099
 20
41.149203
 30
0.0
 10
39.439005
 20
41.028330
 30
0.0
 10
39.359619
 20
40.944861
 30
0.0
 10
39.225286
 20
40.896479
 30
0.0
 10
39.034350
 20
40.880867
 30
0.0
 10
38.860130
 20
40.896700
 30
0.0
 10
38.694517
 20
40.946627
 30
0.0
 10
38.540819
 20
41.034288
 30
0.0
 10
38.402348
 20
41.163326
 30
0.0
 10
38.313197
 20
41.083884
 30
0.0
 10
38.224045
 20
41.004443
 30
0.0
 10
38.134894
 20
40.925001
 30
0.0
 10
38.045743
 20
40.845559
 30
0.0
 10
38.216653
 20
40.659313
 30
0.0
 10
38.441186
 20
40.518084
 30
0.0
 10
38.708087
 20
40.428491
 30
0.0
 10
39.006104
 20
40.397156
 30
0.0
 10
39.442315
 20
40.454144
 30
0.0
 10
39.744469
 20
40.614737
 30
0.0
 10
39.920179
 20
40.863379
 30
0.0
 10
39.977057
 20
41.184510
 30
0.0
 10
39.977057
 20
41.184510
 30
0.0
  0
LWPOLYLINE
  5
107
100
AcDbEntity
  8
Background
 62
7
100
AcDbPolyline
 90
18
 70
0
 10
42.713377
 20
41.675283
 30
0.0
 10
42.634377
 20
42.210520
 30
0.0
 10
42.412382
 20
42.610045
 30
0.0
 10
42.069900
 20
42.859955
 30
0.0
 10
41.629441
 20
42.946348
 30
0.0
 10
41.185837
 20
42.858852
 30
0.0
 10
40.839880
 20
42.606515
 30
0.0
 10
40.615071
 20
42.204562
 30
0.0
 10
40.534912
 20
41.668221
 30
0.0
 10
40.613968
 20
41.132984
 30
0.0
 10
40.836349
 20
40.733459
 30
0.0
 10
41.179879
 20
40.483549
 30
0.0
 10
41.622379
 20
40.397156
 30
0.0
 10
42.063942
 20
40.484652
 30
0.0
 10
42.408851
 20
40.736989
 30
0.0
 10
42.633274
 20
41.138942
 30
0.0
 10
42.713377
 20
41.675283
 30
0.0
 10
42.713377
 20
41.675283
 30
0.0
  0
LWPOLYLINE
  5
108
100
AcDbEntity
  8
Background
 62
7
100
AcDbPolyline
 90
18
 70
0
 10
42.204951
 20
41.668221
 30
0.0
 10
42.163685
 20
41.334787
 30
0.0
 10
42.046951
 20
41.090063
 30
0.0
 10
41.865338
 20
40.939345
 30
0.0
 10
41.629441
 20
40.887928
 30
0.0
 10
41.391889
 20
40.940448
 30
0.0
 10
41.206635
 20
41.093594
 30
0.0
 10
41.086259
 20
41.340745
 30
0.0
 10
41.043338
 20
41.675283
 30
0.0
 10
41.084604
 20
42.008717
 30
0.0
 10
41.201339
 20
42.253441
 30
0.0
 10
41.382951
 20
42.404159
 30
0.0
 10
41.618849
 20
42.455576
 30
0.0
 10
41.856401
 20
42.403056
 30
0.0
 10
42.041654
 20
42.249910
 30
0.0
 10
42.162030
 20
42.002759
 30
0.0
 10
42.204951
 20
41.668221
 30
0.0
 10
42.204951
 20
41.668221
 30
0.0
  0
LWPOLYLINE
  5
109
100
AcDbEntity
  8
Background
 62
7
100
AcDbPolyline
 90
42
 70
0
 10
45.377672
 20
41.526992
 30
0.0
 10
45.377672
 20
41.872121
 30
0.0
 10
45.377672
 20
42.217251
 30
0.0
 10
45.377672
 20
42.562380
 30
0.0
 10
45.377672
 20
42.907510
 30
0.0
 10
45.254096
 20
42.907510
 30
0.0
 10
45.130520
 20
42.907510
 30
0.0
 10
45.006945
 20
42.907510
 30
0.0
 10
44.883369
 20
42.907510
 30
0.0
 10
44.883369
 20
42.560615
 30
0.0
 10
44.883369
 20
42.213720
 30
0.0
 10
44.883369
 20
41.866825
 30
0.0
 10
44.883369
 20
41.519930
 30
0.0
 10
44.848116
 20
41.253249
 30
0.0
 10
44.746994
 20
41.052108
 30
0.0
 10
44.586952
 20
40.925111
 30
0.0
 10
44.374943
 20
40.880867
 30
0.0
 10
44.163484
 20
40.926215
 30
0.0
 10
44.004656
 20
41.055638
 30
0.0
 10
43.904748
 20
41.259207
 30
0.0
 10
43.870047
 20
41.526992
 30
0.0
 10
43.870047
 20
41.872121
 30
0.0
 10
43.870047
 20
42.217251
 30
0.0
 10
43.870047
 20
42.562380
 30
0.0
 10
43.870047
 20
42.907510
 30
0.0
 10
43.746471
 20
42.907510
 30
0.0
 10
43.622895
 20
42.907510
 30
0.0
 10
43.499320
 20
42.907510
 30
0.0
 10
43.375744
 20
42.907510
 30
0.0
 10
43.375744
 20
42.560615
 30
0.0
 10
43.375744
 20
42.213720
 30
0.0
 10
43.375744
 20
41.866825
 30
0.0
 10
43.375744
 20
41.519930
 30
0.0
 10
43.447959
 20
41.040633
 30
0.0
 10
43.651583
 20
40.688442
 30
0.0
 10
43.967087
 20
40.471301
 30
0.0
 10
44.374943
 20
40.397156
 30
0.0
 10
44.796755
 20
40.472901
 30
0.0
 10
45.111984
 20
40.693296
 30
0.0
 10
45.309374
 20
41.048080
 30
0.0
 10
45.377672
 20
41.526992
 30
0.0
 10
45.377672
 20
41.526992
 30
0.0
  0
LWPOLYLINE
  5
10a
100
AcDbEntity
  8
Background
 62
7
100
AcDbPolyline
 90
41
 70
0
 10
48.176488
 20
40.435994
 30
0.0
 10
48.058208
 20
40.676084
 30
0.0
 10
47.939928
 20
40.916174
 30
0.0
 10
47.821649
 20
41.156264
 30
0.0
 10
47.703369
 20
41.396354
 30
0.0
 10
47.909862
 20
41.510000
 30
0.0
 10
48.057767
 20
41.667339
 30
0.0
 10
48.146752
 20
41.871018
 30
0.0
 10
48.176488
 20
42.123686
 30
0.0
 10
48.109073
 20
42.468099
 30
0.0
 10
47.925805
 20
42.712878
 30
0.0
 10
47.655152
 20
42.859018
 30
0.0
 10
47.325580
 20
42.907510
 30
0.0
 10
47.037825
 20
42.907510
 30
0.0
 10
46.750070
 20
42.907510
 30
0.0
 10
46.462315
 20
42.907510
 30
0.0
 10
46.174560
 20
42.907510
 30
0.0
 10
46.174560
 20
42.289631
 30
0.0
 10
46.174560
 20
41.671752
 30
0.0
 10
46.174560
 20
41.053873
 30
0.0
 10
46.174560
 20
40.435994
 30
0.0
 10
46.298135
 20
40.435994
 30
0.0
 10
46.421711
 20
40.435994
 30
0.0
 10
46.545287
 20
40.435994
 30
0.0
 10
46.668863
 20
40.435994
 30
0.0
 10
46.668863
 20
40.658430
 30
0.0
 10
46.668863
 20
40.880867
 30
0.0
 10
46.668863
 20
41.103303
 30
0.0
 10
46.668863
 20
41.325740
 30
0.0
 10
46.793321
 20
41.325740
 30
0.0
 10
46.917780
 20
41.325740
 30
0.0
 10
47.042238
 20
41.325740
 30
0.0
 10
47.166697
 20
41.325740
 30
0.0
 10
47.277032
 20
41.103303
 30
0.0
 10
47.387368
 20
40.880867
 30
0.0
 10
47.497703
 20
40.658430
 30
0.0
 10
47.608039
 20
40.435994
 30
0.0
 10
47.750151
 20
40.435994
 30
0.0
 10
47.892263
 20
40.435994
 30
0.0
 10
48.034376
 20
40.435994
 30
0.0
 10
48.176488
 20
40.435994
 30
0.0
  0
LWPOLYLINE
  5
10b
100
AcDbEntity
  8
Background
 62
7
100
AcDbPolyline
 90
22
 70
0
 10
47.668062
 20
42.113094
 30
0.0
 10
47.645166
 20
41.972030
 30
0.0
 10
47.577585
 20
41.871680
 30
0.0
 10
47.466974
 20
41.811713
 30
0.0
 10
47.314986
 20
41.791797
 30
0.0
 10
47.153455
 20
41.791797
 30
0.0
 10
46.991924
 20
41.791797
 30
0.0
 10
46.830393
 20
41.791797
 30
0.0
 10
46.668862
 20
41.791797
 30
0.0
 10
46.668862
 20
41.950680
 30
0.0
 10
46.668862
 20
42.109563
 30
0.0
 10
46.668862
 20
42.268446
 30
0.0
 10
46.668862
 20
42.427330
 30
0.0
 10
46.830393
 20
42.427330
 30
0.0
 10
46.991924
 20
42.427330
 30
0.0
 10
47.153455
 20
42.427330
 30
0.0
 10
47.314986
 20
42.427330
 30
0.0
 10
47.462505
 20
42.409510
 30
0.0
 10
47.573613
 20
42.353626
 30
0.0
 10
47.643676
 20
42.256034
 30
0.0
 10
47.668062
 20
42.113094
 30
0.0
 10
47.668062
 20
42.113094
 30
0.0
  0
LWPOLYLINE
  5
10c
100
AcDbEntity
  8
Background
 62
7
100
AcDbPolyline
 90
41
 70
0
 10
50.739804
 20
42.399084
 30
0.0
 10
50.598574
 20
42.620141
 30
0.0
 10
50.404384
 20
42.793202
 30
0.0
 10
50.151936
 20
42.906020
 30
0.0
 10
49.835935
 20
42.946348
 30
0.0
 10
49.391779
 20
42.852949
 30
0.0
 10
49.044608
 20
42.591068
 30
0.0
 10
48.818586
 20
42.188177
 30
0.0
 10
48.737876
 20
41.671752
 30
0.0
 10
48.815828
 20
41.143410
 30
0.0
 10
49.035781
 20
40.741844
 30
0.0
 10
49.376884
 20
40.486583
 30
0.0
 10
49.818281
 20
40.397156
 30
0.0
 10
50.126503
 20
40.435166
 30
0.0
 10
50.380110
 20
40.545005
 30
0.0
 10
50.581417
 20
40.720384
 30
0.0
 10
50.732742
 20
40.955012
 30
0.0
 10
50.628585
 20
41.016800
 30
0.0
 10
50.524429
 20
41.078588
 30
0.0
 10
50.420272
 20
41.140376
 30
0.0
 10
50.316115
 20
41.202164
 30
0.0
 10
50.216703
 20
41.060714
 30
0.0
 10
50.108684
 20
40.962956
 30
0.0
 10
49.983453
 20
40.906244
 30
0.0
 10
49.832404
 20
40.887928
 30
0.0
 10
49.584425
 20
40.947840
 30
0.0
 10
49.400330
 20
41.113013
 30
0.0
 10
49.285747
 20
41.361599
 30
0.0
 10
49.246302
 20
41.671752
 30
0.0
 10
49.285195
 20
41.987863
 30
0.0
 10
49.398565
 20
42.235787
 30
0.0
 10
49.581446
 20
42.397649
 30
0.0
 10
49.828873
 20
42.455576
 30
0.0
 10
49.980916
 20
42.437480
 30
0.0
 10
50.105154
 20
42.384961
 30
0.0
 10
50.204235
 20
42.300664
 30
0.0
 10
50.280808
 20
42.187239
 30
0.0
 10
50.395557
 20
42.240201
 30
0.0
 10
50.510306
 20
42.293162
 30
0.0
 10
50.625055
 20
42.346123
 30
0.0
 10
50.739804
 20
42.399084
 30
0.0
  0
LWPOLYLINE
  5
10d
100
AcDbEntity
  8
Background
 62
7
100
AcDbPolyline
 90
49
 70
0
 10
53.144942
 20
40.435994
 30
0.0
 10
53.144942
 20
40.556922
 30
0.0
 10
53.144942
 20
40.677849
 30
0.0
 10
53.144942
 20
40.798777
 30
0.0
 10
53.144942
 20
40.919705
 30
0.0
 10
52.826293
 20
40.919705
 30
0.0
 10
52.507644
 20
40.919705
 30
0.0
 10
52.188995
 20
40.919705
 30
0.0
 10
51.870346
 20
40.919705
 30
0.0
 10
51.870346
 20
41.068879
 30
0.0
 10
51.870346
 20
41.218052
 30
0.0
 10
51.870346
 20
41.367226
 30
0.0
 10
51.870346
 20
41.516400
 30
0.0
 10
52.047765
 20
41.516400
 30
0.0
 10
52.225185
 20
41.516400
 30
0.0
 10
52.402604
 20
41.516400
 30
0.0
 10
52.580024
 20
41.516400
 30
0.0
 10
52.580024
 20
41.636445
 30
0.0
 10
52.580024
 20
41.756490
 30
0.0
 10
52.580024
 20
41.876535
 30
0.0
 10
52.580024
 20
41.996580
 30
0.0
 10
52.402604
 20
41.996580
 30
0.0
 10
52.225185
 20
41.996580
 30
0.0
 10
52.047765
 20
41.996580
 30
0.0
 10
51.870346
 20
41.996580
 30
0.0
 10
51.870346
 20
42.103385
 30
0.0
 10
51.870346
 20
42.210189
 30
0.0
 10
51.870346
 20
42.316994
 30
0.0
 10
51.870346
 20
42.423799
 30
0.0
 10
52.175755
 20
42.423799
 30
0.0
 10
52.481163
 20
42.423799
 30
0.0
 10
52.786572
 20
42.423799
 30
0.0
 10
53.091981
 20
42.423799
 30
0.0
 10
53.091981
 20
42.544727
 30
0.0
 10
53.091981
 20
42.665655
 30
0.0
 10
53.091981
 20
42.786582
 30
0.0
 10
53.091981
 20
42.907510
 30
0.0
 10
52.662996
 20
42.907510
 30
0.0
 10
52.234012
 20
42.907510
 30
0.0
 10
51.805027
 20
42.907510
 30
0.0
 10
51.376043
 20
42.907510
 30
0.0
 10
51.376043
 20
42.289631
 30
0.0
 10
51.376043
 20
41.671752
 30
0.0
 10
51.376043
 20
41.053873
 30
0.0
 10
51.376043
 20
40.435994
 30
0.0
 10
51.818267
 20
40.435994
 30
0.0
 10
52.260492
 20
40.435994
 30
0.0
 10
52.702717
 20
40.435994
 30
0.0
 10
53.144942
 20
40.435994
 30
0.0
  0
LWPOLYLINE
  5
10e
100
AcDbEntity
  8
Background
 62
7
100
AcDbPolyline
 90
49
 70
0
 10
31.387479
 20
36.905257
 30
0.0
 10
31.387479
 20
37.026184
 30
0.0
 10
31.387479
 20
37.147112
 30
0.0
 10
31.387479
 20
37.268040
 30
0.0
 10
31.387479
 20
37.388968
 30
0.0
 10
31.068830
 20
37.388968
 30
0.0
 10
30.750181
 20
37.388968
 30
0.0
 10
30.431532
 20
37.388968
 30
0.0
 10
30.112883
 20
37.388968
 30
0.0
 10
30.112883
 20
37.538141
 30
0.0
 10
30.112883
 20
37.687315
 30
0.0
 10
30.112883
 20
37.836489
 30
0.0
 10
30.112883
 20
37.985662
 30
0.0
 10
30.290302
 20
37.985662
 30
0.0
 10
30.467722
 20
37.985662
 30
0.0
 10
30.645141
 20
37.985662
 30
0.0
 10
30.822561
 20
37.985662
 30
0.0
 10
30.822561
 20
38.105707
 30
0.0
 10
30.822561
 20
38.225752
 30
0.0
 10
30.822561
 20
38.345797
 30
0.0
 10
30.822561
 20
38.465843
 30
0.0
 10
30.645141
 20
38.465843
 30
0.0
 10
30.467722
 20
38.465843
 30
0.0
 10
30.290302
 20
38.465843
 30
0.0
 10
30.112883
 20
38.465843
 30
0.0
 10
30.112883
 20
38.572647
 30
0.0
 10
30.112883
 20
38.679452
 30
0.0
 10
30.112883
 20
38.786257
 30
0.0
 10
30.112883
 20
38.893062
 30
0.0
 10
30.418291
 20
38.893062
 30
0.0
 10
30.723700
 20
38.893062
 30
0.0
 10
31.029109
 20
38.893062
 30
0.0
 10
31.334518
 20
38.893062
 30
0.0
 10
31.334518
 20
39.013989
 30
0.0
 10
31.334518
 20
39.134917
 30
0.0
 10
31.334518
 20
39.255845
 30
0.0
 10
31.334518
 20
39.376773
 30
0.0
 10
30.905533
 20
39.376773
 30
0.0
 10
30.476549
 20
39.376773
 30
0.0
 10
30.047564
 20
39.376773
 30
0.0
 10
29.618579
 20
39.376773
 30
0.0
 10
29.618579
 20
38.758894
 30
0.0
 10
29.618579
 20
38.141015
 30
0.0
 10
29.618579
 20
37.523136
 30
0.0
 10
29.618579
 20
36.905257
 30
0.0
 10
30.060804
 20
36.905257
 30
0.0
 10
30.503029
 20
36.905257
 30
0.0
 10
30.945254
 20
36.905257
 30
0.0
 10
31.387479
 20
36.905257
 30
0.0
  0
LWPOLYLINE
  5
10f
100
AcDbEntity
  8
Background
 62
7
100
AcDbPolyline
 90
22
 70
0
 10
34.080726
 20
38.141015
 30
0.0
 10
33.988044
 20
38.715421
 30
0.0
 10
33.731183
 20
39.097844
 30
0.0
 10
33.341919
 20
39.310792
 30
0.0
 10
32.852029
 20
39.376773
 30
0.0
 10
32.658721
 20
39.376773
 30
0.0
 10
32.465413
 20
39.376773
 30
0.0
 10
32.272105
 20
39.376773
 30
0.0
 10
32.078798
 20
39.376773
 30
0.0
 10
32.078798
 20
38.758894
 30
0.0
 10
32.078798
 20
38.141015
 30
0.0
 10
32.078798
 20
37.523136
 30
0.0
 10
32.078798
 20
36.905257
 30
0.0
 10
32.263279
 20
36.905257
 30
0.0
 10
32.447760
 20
36.905257
 30
0.0
 10
32.632241
 20
36.905257
 30
0.0
 10
32.816722
 20
36.905257
 30
0.0
 10
33.282338
 20
36.976202
 30
0.0
 10
33.687048
 20
37.197425
 30
0.0
 10
33.972597
 20
37.581503
 30
0.0
 10
34.080726
 20
38.141015
 30
0.0
 10
34.080726
 20
38.141015
 30
0.0
  0
LWPOLYLINE
  5
110
100
AcDbEntity
  8
Background
 62
7
100
AcDbPolyline
 90
22
 70
0
 10
33.572299
 20
38.141015
 30
0.0
 10
33.527227
 20
37.832296
 30
0.0
 10
33.389142
 20
37.593750
 30
0.0
 10
33.153742
 20
37.439943
 30
0.0
 10
32.816722
 20
37.385437
 30
0.0
 10
32.755816
 20
37.385437
 30
0.0
 10
32.694911
 20
37.385437
 30
0.0
 10
32.634006
 20
37.385437
 30
0.0
 10
32.573101
 20
37.385437
 30
0.0
 10
32.573101
 20
37.763226
 30
0.0
 10
32.573101
 20
38.141015
 30
0.0
 10
32.573101
 20
38.518804
 30
0.0
 10
32.573101
 20
38.896592
 30
0.0
 10
32.638419
 20
38.896592
 30
0.0
 10
32.703738
 20
38.896592
 30
0.0
 10
32.769057
 20
38.896592
 30
0.0
 10
32.834375
 20
38.896592
 30
0.0
 10
33.170126
 20
38.849534
 30
0.0
 10
33.399293
 20
38.708139
 30
0.0
 10
33.530482
 20
38.472076
 30
0.0
 10
33.572299
 20
38.141015
 30
0.0
 10
33.572299
 20
38.141015
 30
0.0
  0
LWPOLYLINE
  5
111
100
AcDbEntity
  8
Background
 62
7
100
AcDbPolyline
 90
42
 70
0
 10
36.741136
 20
37.996254
 30
0.0
 10
36.741136
 20
38.341384
 30
0.0
 10
36.741136
 20
38.686514
 30
0.0
 10
36.741136
 20
39.031643
 30
0.0
 10
36.741136
 20
39.376773
 30
0.0
 10
36.617560
 20
39.376773
 30
0.0
 10
36.493984
 20
39.376773
 30
0.0
 10
36.370408
 20
39.376773
 30
0.0
 10
36.246833
 20
39.376773
 30
0.0
 10
36.246833
 20
39.029878
 30
0.0
 10
36.246833
 20
38.682983
 30
0.0
 10
36.246833
 20
38.336088
 30
0.0
 10
36.246833
 20
37.989193
 30
0.0
 10
36.211580
 20
37.722512
 30
0.0
 10
36.110458
 20
37.521370
 30
0.0
 10
35.950416
 20
37.394374
 30
0.0
 10
35.738406
 20
37.350130
 30
0.0
 10
35.526948
 20
37.395477
 30
0.0
 10
35.368120
 20
37.524901
 30
0.0
 10
35.268211
 20
37.728470
 30
0.0
 10
35.233511
 20
37.996254
 30
0.0
 10
35.233511
 20
38.341384
 30
0.0
 10
35.233511
 20
38.686514
 30
0.0
 10
35.233511
 20
39.031643
 30
0.0
 10
35.233511
 20
39.376773
 30
0.0
 10
35.109935
 20
39.376773
 30
0.0
 10
34.986359
 20
39.376773
 30
0.0
 10
34.862784
 20
39.376773
 30
0.0
 10
34.739208
 20
39.376773
 30
0.0
 10
34.739208
 20
39.029878
 30
0.0
 10
34.739208
 20
38.682983
 30
0.0
 10
34.739208
 20
38.336088
 30
0.0
 10
34.739208
 20
37.989193
 30
0.0
 10
34.811422
 20
37.509895
 30
0.0
 10
35.015047
 20
37.157704
 30
0.0
 10
35.330551
 20
36.940564
 30
0.0
 10
35.738406
 20
36.866419
 30
0.0
 10
36.160219
 20
36.942164
 30
0.0
 10
36.475448
 20
37.162559
 30
0.0
 10
36.672838
 20
37.517343
 30
0.0
 10
36.741136
 20
37.996254
 30
0.0
 10
36.741136
 20
37.996254
 30
0.0
  0
LWPOLYLINE
  5
112
100
AcDbEntity
  8
Background
 62
7
100
AcDbPolyline
 90
41
 70
0
 10
39.406843
 20
38.868347
 30
0.0
 10
39.265614
 20
39.089404
 30
0.0
 10
39.071423
 20
39.262465
 30
0.0
 10
38.818975
 20
39.375283
 30
0.0
 10
38.502974
 20
39.415611
 30
0.0
 10
38.058819
 20
39.322212
 30
0.0
 10
37.711648
 20
39.060330
 30
0.0
 10
37.485625
 20
38.657440
 30
0.0
 10
37.404915
 20
38.141015
 30
0.0
 10
37.482867
 20
37.612673
 30
0.0
 10
37.702821
 20
37.211107
 30
0.0
 10
38.043923
 20
36.955845
 30
0.0
 10
38.485321
 20
36.866419
 30
0.0
 10
38.793543
 20
36.904429
 30
0.0
 10
39.047149
 20
37.014268
 30
0.0
 10
39.248457
 20
37.189646
 30
0.0
 10
39.399782
 20
37.424275
 30
0.0
 10
39.295625
 20
37.486063
 30
0.0
 10
39.191468
 20
37.547851
 30
0.0
 10
39.087311
 20
37.609639
 30
0.0
 10
38.983155
 20
37.671427
 30
0.0
 10
38.883742
 20
37.529976
 30
0.0
 10
38.775724
 20
37.432219
 30
0.0
 10
38.650493
 20
37.375507
 30
0.0
 10
38.499444
 20
37.357191
 30
0.0
 10
38.251464
 20
37.417103
 30
0.0
 10
38.067369
 20
37.582276
 30
0.0
 10
37.952786
 20
37.830861
 30
0.0
 10
37.913341
 20
38.141015
 30
0.0
 10
37.952234
 20
38.457126
 30
0.0
 10
38.065604
 20
38.705050
 30
0.0
 10
38.248486
 20
38.866912
 30
0.0
 10
38.495913
 20
38.924838
 30
0.0
 10
38.647955
 20
38.906743
 30
0.0
 10
38.772193
 20
38.854223
 30
0.0
 10
38.871274
 20
38.769927
 30
0.0
 10
38.947847
 20
38.656502
 30
0.0
 10
39.062596
 20
38.709463
 30
0.0
 10
39.177345
 20
38.762424
 30
0.0
 10
39.292094
 20
38.815386
 30
0.0
 10
39.406843
 20
38.868347
 30
0.0
  0
LWPOLYLINE
  5
113
100
AcDbEntity
  8
Background
 62
7
100
AcDbPolyline
 90
33
 70
0
 10
42.222958
 20
36.905257
 30
0.0
 10
41.988164
 20
37.523136
 30
0.0
 10
41.753370
 20
38.141015
 30
0.0
 10
41.518576
 20
38.758894
 30
0.0
 10
41.283782
 20
39.376773
 30
0.0
 10
41.163737
 20
39.376773
 30
0.0
 10
41.043692
 20
39.376773
 30
0.0
 10
40.923647
 20
39.376773
 30
0.0
 10
40.803602
 20
39.376773
 30
0.0
 10
40.567043
 20
38.758894
 30
0.0
 10
40.330483
 20
38.141015
 30
0.0
 10
40.093924
 20
37.523136
 30
0.0
 10
39.857365
 20
36.905257
 30
0.0
 10
39.989767
 20
36.905257
 30
0.0
 10
40.122170
 20
36.905257
 30
0.0
 10
40.254572
 20
36.905257
 30
0.0
 10
40.386975
 20
36.905257
 30
0.0
 10
40.435523
 20
37.042955
 30
0.0
 10
40.484070
 20
37.180654
 30
0.0
 10
40.532618
 20
37.318353
 30
0.0
 10
40.581166
 20
37.456052
 30
0.0
 10
40.807133
 20
37.456052
 30
0.0
 10
41.033100
 20
37.456052
 30
0.0
 10
41.259067
 20
37.456052
 30
0.0
 10
41.485034
 20
37.456052
 30
0.0
 10
41.533582
 20
37.318353
 30
0.0
 10
41.582130
 20
37.180654
 30
0.0
 10
41.630677
 20
37.042955
 30
0.0
 10
41.679225
 20
36.905257
 30
0.0
 10
41.815158
 20
36.905257
 30
0.0
 10
41.951092
 20
36.905257
 30
0.0
 10
42.087025
 20
36.905257
 30
0.0
 10
42.222958
 20
36.905257
 30
0.0
  0
LWPOLYLINE
  5
114
100
AcDbEntity
  8
Background
 62
7
100
AcDbPolyline
 90
21
 70
0
 10
41.315559
 20
37.925640
 30
0.0
 10
41.174330
 20
37.925640
 30
0.0
 10
41.033100
 20
37.925640
 30
0.0
 10
40.891871
 20
37.925640
 30
0.0
 10
40.750641
 20
37.925640
 30
0.0
 10
40.790362
 20
38.037741
 30
0.0
 10
40.830083
 20
38.149842
 30
0.0
 10
40.869803
 20
38.261942
 30
0.0
 10
40.909524
 20
38.374043
 30
0.0
 10
40.946211
 20
38.482338
 30
0.0
 10
40.980580
 20
38.586329
 30
0.0
 10
41.010316
 20
38.680390
 30
0.0
 10
41.033100
 20
38.758894
 30
0.0
 10
41.055885
 20
38.680390
 30
0.0
 10
41.085621
 20
38.586329
 30
0.0
 10
41.119990
 20
38.482338
 30
0.0
 10
41.156676
 20
38.374043
 30
0.0
 10
41.196397
 20
38.261942
 30
0.0
 10
41.236117
 20
38.149842
 30
0.0
 10
41.275838
 20
38.037741
 30
0.0
 10
41.315559
 20
37.925640
 30
0.0
  0
LWPOLYLINE
  5
115
100
AcDbEntity
  8
Background
 62
7
100
AcDbPolyline
 90
33
 70
0
 10
44.320216
 20
38.889531
 30
0.0
 10
44.320216
 20
39.011341
 30
0.0
 10
44.320216
 20
39.133152
 30
0.0
 10
44.320216
 20
39.254962
 30
0.0
 10
44.320216
 20
39.376773
 30
0.0
 10
43.841801
 20
39.376773
 30
0.0
 10
43.363386
 20
39.376773
 30
0.0
 10
42.884971
 20
39.376773
 30
0.0
 10
42.406556
 20
39.376773
 30
0.0
 10
42.406556
 20
39.254962
 30
0.0
 10
42.406556
 20
39.133152
 30
0.0
 10
42.406556
 20
39.011341
 30
0.0
 10
42.406556
 20
38.889531
 30
0.0
 10
42.583976
 20
38.889531
 30
0.0
 10
42.761396
 20
38.889531
 30
0.0
 10
42.938815
 20
38.889531
 30
0.0
 10
43.116235
 20
38.889531
 30
0.0
 10
43.116235
 20
38.393462
 30
0.0
 10
43.116235
 20
37.897394
 30
0.0
 10
43.116235
 20
37.401325
 30
0.0
 10
43.116235
 20
36.905257
 30
0.0
 10
43.239810
 20
36.905257
 30
0.0
 10
43.363386
 20
36.905257
 30
0.0
 10
43.486962
 20
36.905257
 30
0.0
 10
43.610538
 20
36.905257
 30
0.0
 10
43.610538
 20
37.401325
 30
0.0
 10
43.610538
 20
37.897394
 30
0.0
 10
43.610538
 20
38.393462
 30
0.0
 10
43.610538
 20
38.889531
 30
0.0
 10
43.787957
 20
38.889531
 30
0.0
 10
43.965377
 20
38.889531
 30
0.0
 10
44.142797
 20
38.889531
 30
0.0
 10
44.320216
 20
38.889531
 30
0.0
  0
LWPOLYLINE
  5
116
100
AcDbEntity
  8
Background
 62
7
100
AcDbPolyline
 90
17
 70
0
 10
45.448993
 20
36.905257
 30
0.0
 10
45.448993
 20
37.523136
 30
0.0
 10
45.448993
 20
38.141015
 30
0.0
 10
45.448993
 20
38.758894
 30
0.0
 10
45.448993
 20
39.376773
 30
0.0
 10
45.325417
 20
39.376773
 30
0.0
 10
45.201842
 20
39.376773
 30
0.0
 10
45.078266
 20
39.376773
 30
0.0
 10
44.954690
 20
39.376773
 30
0.0
 10
44.954690
 20
38.758894
 30
0.0
 10
44.954690
 20
38.141015
 30
0.0
 10
44.954690
 20
37.523136
 30
0.0
 10
44.954690
 20
36.905257
 30
0.0
 10
45.078266
 20
36.905257
 30
0.0
 10
45.201842
 20
36.905257
 30
0.0
 10
45.325417
 20
36.905257
 30
0.0
 10
45.448993
 20
36.905257
 30
0.0
  0
LWPOLYLINE
  5
117
100
AcDbEntity
  8
Background
 62
7
100
AcDbPolyline
 90
18
 70
0
 10
48.337137
 20
38.144545
 30
0.0
 10
48.258137
 20
38.679783
 30
0.0
 10
48.036142
 20
39.079308
 30
0.0
 10
47.693660
 20
39.329218
 30
0.0
 10
47.253201
 20
39.415611
 30
0.0
 10
46.809596
 20
39.328115
 30
0.0
 10
46.463639
 20
39.075777
 30
0.0
 10
46.238831
 20
38.673825
 30
0.0
 10
46.158672
 20
38.137484
 30
0.0
 10
46.237728
 20
37.602246
 30
0.0
 10
46.460109
 20
37.202721
 30
0.0
 10
46.803639
 20
36.952811
 30
0.0
 10
47.246139
 20
36.866419
 30
0.0
 10
47.687702
 20
36.953915
 30
0.0
 10
48.032611
 20
37.206252
 30
0.0
 10
48.257033
 20
37.608204
 30
0.0
 10
48.337137
 20
38.144545
 30
0.0
 10
48.337137
 20
38.144545
 30
0.0
  0
LWPOLYLINE
  5
118
100
AcDbEntity
  8
Background
 62
7
100
AcDbPolyline
 90
18
 70
0
 10
47.828711
 20
38.137484
 30
0.0
 10
47.787445
 20
37.804050
 30
0.0
 10
47.670710
 20
37.559326
 30
0.0
 10
47.489098
 20
37.408607
 30
0.0
 10
47.253201
 20
37.357191
 30
0.0
 10
47.015648
 20
37.409711
 30
0.0
 10
46.830395
 20
37.562856
 30
0.0
 10
46.710019
 20
37.810008
 30
0.0
 10
46.667098
 20
38.144545
 30
0.0
 10
46.708364
 20
38.477979
 30
0.0
 10
46.825099
 20
38.722704
 30
0.0
 10
47.006711
 20
38.873422
 30
0.0
 10
47.242608
 20
38.924838
 30
0.0
 10
47.480161
 20
38.872319
 30
0.0
 10
47.665414
 20
38.719173
 30
0.0
 10
47.785790
 20
38.472021
 30
0.0
 10
47.828711
 20
38.137484
 30
0.0
 10
47.828711
 20
38.137484
 30
0.0
  0
LWPOLYLINE
  5
119
100
AcDbEntity
  8
Background
 62
7
100
AcDbPolyline
 90
57
 70
0
 10
51.030736
 20
36.905257
 30
0.0
 10
51.030736
 20
37.523136
 30
0.0
 10
51.030736
 20
38.141015
 30
0.0
 10
51.030736
 20
38.758894
 30
0.0
 10
51.030736
 20
39.376773
 30
0.0
 10
50.908926
 20
39.376773
 30
0.0
 10
50.787115
 20
39.376773
 30
0.0
 10
50.665305
 20
39.376773
 30
0.0
 10
50.543494
 20
39.376773
 30
0.0
 10
50.543494
 20
39.115498
 30
0.0
 10
50.543494
 20
38.854224
 30
0.0
 10
50.543494
 20
38.592949
 30
0.0
 10
50.543494
 20
38.331674
 30
0.0
 10
50.544604
 20
38.202085
 30
0.0
 10
50.547025
 20
38.044361
 30
0.0
 10
50.549446
 20
37.895242
 30
0.0
 10
50.550556
 20
37.791472
 30
0.0
 10
50.518559
 20
37.848956
 30
0.0
 10
50.474645
 20
37.920344
 30
0.0
 10
50.425435
 20
37.997027
 30
0.0
 10
50.377550
 20
38.070400
 30
0.0
 10
50.158644
 20
38.396993
 30
0.0
 10
49.939738
 20
38.723586
 30
0.0
 10
49.720833
 20
39.050180
 30
0.0
 10
49.501927
 20
39.376773
 30
0.0
 10
49.383647
 20
39.376773
 30
0.0
 10
49.265367
 20
39.376773
 30
0.0
 10
49.147088
 20
39.376773
 30
0.0
 10
49.028808
 20
39.376773
 30
0.0
 10
49.028808
 20
38.758894
 30
0.0
 10
49.028808
 20
38.141015
 30
0.0
 10
49.028808
 20
37.523136
 30
0.0
 10
49.028808
 20
36.905257
 30
0.0
 10
49.150618
 20
36.905257
 30
0.0
 10
49.272429
 20
36.905257
 30
0.0
 10
49.394239
 20
36.905257
 30
0.0
 10
49.516050
 20
36.905257
 30
0.0
 10
49.516050
 20
37.177123
 30
0.0
 10
49.516050
 20
37.448990
 30
0.0
 10
49.516050
 20
37.720857
 30
0.0
 10
49.516050
 20
37.992724
 30
0.0
 10
49.514940
 20
38.122313
 30
0.0
 10
49.512519
 20
38.280037
 30
0.0
 10
49.510098
 20
38.429156
 30
0.0
 10
49.508988
 20
38.532927
 30
0.0
 10
49.540987
 20
38.475442
 30
0.0
 10
49.584900
 20
38.404055
 30
0.0
 10
49.634110
 20
38.327371
 30
0.0
 10
49.681996
 20
38.253998
 30
0.0
 10
49.908846
 20
37.916813
 30
0.0
 10
50.135696
 20
37.579627
 30
0.0
 10
50.362545
 20
37.242442
 30
0.0
 10
50.589395
 20
36.905257
 30
0.0
 10
50.699731
 20
36.905257
 30
0.0
 10
50.810066
 20
36.905257
 30
0.0
 10
50.920402
 20
36.905257
 30
0.0
 10
51.030736
 20
36.905257
 30
0.0
  0
ENDSEC
  0
SECTION
  2
OBJECTS
  0
DICTIONARY
  5
C
330
0
100
AcDbDictionary
  3
ACAD_GROUP
350
D
  3
ACAD_MLINESTYLE
350
17
  0
DICTIONARY
  5
D
330
C
100
AcDbDictionary
  0
DICTIONARY
  5
1A
330
C
100
AcDbDictionary
  0
DICTIONARY
  5
17
330
C
100
AcDbDictionary
  3
STANDARD
350
18
  0
DICTIONARY
  5
19
330
C
100
AcDbDictionary
  0
ENDSEC
  0
EOF
