  0
SECTION
  2
HEADER
  9
$ACADVER
  1
AC1014
  9
$HANDSEED
  5
FFFF
  9
$MEASUREMENT
 70
     1
  0
ENDSEC
  0
SECTION
  2
TABLES
  0
TABLE
  2
VPORT
  5
8
330
0
100
AcDbSymbolTable
 70
     4
  0
VPORT
  5
2E
330
8
100
AcDbSymbolTableRecord
100
AcDbViewportTableRecord
  2
*ACTIVE
 70
     0
 10
0.0
 20
0.0
 11
1.0
 21
1.0
 12
210.0
 22
148.5
 13
0.0
 23
0.0
 14
10.0
 24
10.0
 15
10.0
 25
10.0
 16
0.0
 26
0.0
 36
1.0
 17
0.0
 27
0.0
 37
0.0
 40
341.0
 41
1.24
 42
50.0
 43
0.0
 44
0.0
 50
0.0
 51
0.0
 71
     0
 72
   100
 73
     1
 74
     3
 75
     0
 76
     0
 77
     0
 78
     0
  0
ENDTAB
  0
TABLE
  2
LTYPE
  5
5
330
0
100
AcDbSymbolTable
 70
     1
  0
LTYPE
  5
14
330
5
100
AcDbSymbolTableRecord
100
AcDbLinetypeTableRecord
  2
BYBLOCK
 70
     0
  3

 72
    65
 73
     0
 40
0.0
  0
LTYPE
  5
15
330
5
100
AcDbSymbolTableRecord
100
AcDbLinetypeTableRecord
  2
BYLAYER
 70
     0
  3

 72
    65
 73
     0
 40
0.0
  0
LTYPE
  5
16
330
5
100
AcDbSymbolTableRecord
100
AcDbLinetypeTableRecord
  2
CONTINUOUS
 70
     0
  3
Solid line
 72
    65
 73
     0
 40
0.0
  0
ENDTAB
  0
TABLE
  2
LAYER
  5
2
100
AcDbSymbolTable
 70
7
  0
LAYER
  5
50
100
AcDbSymbolTableRecord
100
AcDbLayerTableRecord
  2
0
 70
0
  6
CONTINUOUS
  0
LAYER
  5
51
100
AcDbSymbolTableRecord
100
AcDbLayerTableRecord
  2
Artwork
 70
0
  6
CONTINUOUS
  0
LAYER
  5
52
100
AcDbSymbolTableRecord
100
AcDbLayerTableRecord
  2
Background
 70
0
  6
CONTINUOUS
  0
LAYER
  5
53
100
AcDbSymbolTableRecord
100
AcDbLayerTableRecord
  2
owl
 70
0
  6
CONTINUOUS
  0
LAYER
  5
54
100
AcDbSymbolTableRecord
100
AcDbLayerTableRecord
  2
text
 70
0
  6
CONTINUOUS
  0
LAYER
  5
55
100
AcDbSymbolTableRecord
100
AcDbLayerTableRecord
  2
leaves
 70
0
  6
CONTINUOUS
  0
LAYER
  5
56
100
AcDbSymbolTableRecord
100
AcDbLayerTableRecord
  2
logos
 70
0
  6
CONTINUOUS
  0
ENDTAB
  0
TABLE
  2
STYLE
  5
3
330
0
100
AcDbSymbolTable
 70
     1
  0
STYLE
  5
11
330
3
100
AcDbSymbolTableRecord
100
AcDbTextStyleTableRecord
  2
STANDARD
 70
     0
 40
0.0
 41
1.0
 50
0.0
 71
     0
 42
2.5
  3
txt
  4

  0
ENDTAB
  0
TABLE
  2
VIEW
  5
6
330
0
100
AcDbSymbolTable
 70
     0
  0
ENDTAB
  0
TABLE
  2
UCS
  5
7
330
0
100
AcDbSymbolTable
 70
     0
  0
ENDTAB
  0
TABLE
  2
APPID
  5
9
330
0
100
AcDbSymbolTable
 70
     2
  0
APPID
  5
12
330
9
100
AcDbSymbolTableRecord
100
AcDbRegAppTableRecord
  2
ACAD
 70
     0
  0
ENDTAB
  0
TABLE
  2
DIMSTYLE
  5
A
330
0
100
AcDbSymbolTable
 70
     1
  0
DIMSTYLE
105
27
330
A
100
AcDbSymbolTableRecord
100
AcDbDimStyleTableRecord
  2
ISO-25
 70
     0
  3

  4

  5

  6

  7

 40
1.0
 41
2.5
 42
0.625
 43
3.75
 44
1.25
 45
0.0
 46
0.0
 47
0.0
 48
0.0
140
2.5
141
2.5
142
0.0
143
0.03937007874016
144
1.0
145
0.0
146
1.0
147
0.625
 71
     0
 72
     0
 73
     0
 74
     0
 75
     0
 76
     0
 77
     1
 78
     8
170
     0
171
     3
172
     1
173
     0
174
     0
175
     0
176
     0
177
     0
178
     0
270
     2
271
     2
272
     2
273
     2
274
     3
340
11
275
     0
280
     0
281
     0
282
     0
283
     0
284
     8
285
     0
286
     0
287
     3
288
     0
  0
ENDTAB
  0
TABLE
  2
BLOCK_RECORD
  5
1
330
0
100
AcDbSymbolTable
 70
     1
  0
BLOCK_RECORD
  5
1F
330
1
100
AcDbSymbolTableRecord
100
AcDbBlockTableRecord
  2
*MODEL_SPACE
  0
BLOCK_RECORD
  5
1B
330
1
100
AcDbSymbolTableRecord
100
AcDbBlockTableRecord
  2
*PAPER_SPACE
  0
ENDTAB
  0
ENDSEC
  0
SECTION
  2
BLOCKS
  0
BLOCK
  5
20
330
1F
100
AcDbEntity
  8
0
100
AcDbBlockBegin
  2
*MODEL_SPACE
 70
     0
 10
0.0
 20
0.0
 30
0.0
  3
*MODEL_SPACE
  1

  0
ENDBLK
  5
21
330
1F
100
AcDbEntity
  8
0
100
AcDbBlockEnd
  0
BLOCK
  5
1C
330
1B
100
AcDbEntity
 67
     1
  8
0
100
AcDbBlockBegin
  2
*PAPER_SPACE
  1

  0
ENDBLK
  5
1D
330
1B
100
AcDbEntity
 67
     1
  8
0
100
AcDbBlockEnd
  0
ENDSEC
  0
SECTION
  2
ENTITIES
  0
LWPOLYLINE
  5
100
100
AcDbEntity
  8
leaves
 62
7
100
AcDbPolyline
 90
205
 70
0
 10
65.097920
 20
70.782313
 30
0.0
 10
65.098860
 20
70.753693
 30
0.0
 10
65.101661
 20
70.669043
 30
0.0
 10
65.106289
 20
70.530185
 30
0.0
 10
65.112715
 20
70.338936
 30
0.0
 10
65.116435
 20
70.211937
 30
0.0
 10
65.120533
 20
70.071204
 30
0.0
 10
65.125010
 20
69.916949
 30
0.0
 10
65.129864
 20
69.749384
 30
0.0
 10
65.132476
 20
69.565386
 30
0.0
 10
65.130327
 20
69.373233
 30
0.0
 10
65.125845
 20
69.170590
 30
0.0
 10
65.121458
 20
68.955122
 30
0.0
 10
65.101876
 20
68.488829
 30
0.0
 10
65.063663
 20
67.977453
 30
0.0
 10
65.002059
 20
67.424298
 30
0.0
 10
64.912304
 20
66.832669
 30
0.0
 10
64.792469
 20
66.206123
 30
0.0
 10
64.634552
 20
65.549471
 30
0.0
 10
64.431493
 20
64.869352
 30
0.0
 10
64.176229
 20
64.172407
 30
0.0
 10
63.875848
 20
63.462738
 30
0.0
 10
63.522160
 20
62.748855
 30
0.0
 10
63.114691
 20
62.037458
 30
0.0
 10
62.652968
 20
61.335247
 30
0.0
 10
62.143218
 20
60.645498
 30
0.0
 10
61.593243
 20
59.968451
 30
0.0
 10
61.006446
 20
59.305534
 30
0.0
 10
60.386235
 20
58.658169
 30
0.0
 10
59.739947
 20
58.023478
 30
0.0
 10
59.074019
 20
57.398579
 30
0.0
 10
58.395041
 20
56.779077
 30
0.0
 10
57.709600
 20
56.160576
 30
0.0
 10
57.024201
 20
55.539017
 30
0.0
 10
56.347786
 20
54.907090
 30
0.0
 10
55.689844
 20
54.259155
 30
0.0
 10
55.059865
 20
53.589572
 30
0.0
 10
54.474635
 20
52.889625
 30
0.0
 10
53.945329
 20
52.155752
 30
0.0
 10
53.492691
 20
51.385678
 30
0.0
 10
53.137463
 20
50.577131
 30
0.0
 10
52.888467
 20
49.741767
 30
0.0
 10
52.754756
 20
48.886332
 30
0.0
 10
52.741531
 20
48.033201
 30
0.0
 10
52.853995
 20
47.204750
 30
0.0
 10
52.966027
 20
46.806966
 30
0.0
 10
53.116740
 20
46.425646
 30
0.0
 10
53.306481
 20
46.065852
 30
0.0
 10
53.535595
 20
45.732648
 30
0.0
 10
53.801189
 20
45.431444
 30
0.0
 10
54.097991
 20
45.164925
 30
0.0
 10
54.421274
 20
44.936970
 30
0.0
 10
54.766309
 20
44.751462
 30
0.0
 10
54.944869
 20
44.675641
 30
0.0
 10
55.126739
 20
44.613008
 30
0.0
 10
55.310058
 20
44.565595
 30
0.0
 10
55.492969
 20
44.535432
 30
0.0
 10
55.581415
 20
44.528783
 30
0.0
 10
55.673961
 20
44.528803
 30
0.0
 10
55.770163
 20
44.531972
 30
0.0
 10
55.869580
 20
44.534786
 30
0.0
 10
55.967401
 20
44.538721
 30
0.0
 10
56.060745
 20
44.548569
 30
0.0
 10
56.152071
 20
44.560661
 30
0.0
 10
56.243839
 20
44.571326
 30
0.0
 10
56.605545
 20
44.640811
 30
0.0
 10
56.949944
 20
44.747618
 30
0.0
 10
57.272844
 20
44.888442
 30
0.0
 10
57.570051
 20
45.059979
 30
0.0
 10
58.074952
 20
45.484154
 30
0.0
 10
58.440167
 20
45.986915
 30
0.0
 10
58.671026
 20
46.528362
 30
0.0
 10
58.772855
 20
47.068596
 30
0.0
 10
58.757239
 20
47.581786
 30
0.0
 10
58.639863
 20
48.039433
 30
0.0
 10
58.444306
 20
48.426741
 30
0.0
 10
58.194150
 20
48.728915
 30
0.0
 10
57.916246
 20
48.946460
 30
0.0
 10
57.638689
 20
49.087724
 30
0.0
 10
57.379353
 20
49.170048
 30
0.0
 10
57.156113
 20
49.210776
 30
0.0
 10
57.060636
 20
49.222968
 30
0.0
 10
56.976382
 20
49.229006
 30
0.0
 10
56.903980
 20
49.231108
 30
0.0
 10
56.844063
 20
49.231464
 30
0.0
 10
56.797512
 20
49.232111
 30
0.0
 10
56.763950
 20
49.232628
 30
0.0
 10
56.743626
 20
49.232951
 30
0.0
 10
56.736796
 20
49.233068
 30
0.0
 10
56.731248
 20
49.233229
 30
0.0
 10
56.725700
 20
49.233391
 30
0.0
 10
56.720152
 20
49.233553
 30
0.0
 10
56.714603
 20
49.233714
 30
0.0
 10
56.628142
 20
49.252002
 30
0.0
 10
56.558074
 20
49.299244
 30
0.0
 10
56.511460
 20
49.368375
 30
0.0
 10
56.495363
 20
49.452332
 30
0.0
 10
56.514520
 20
49.535531
 30
0.0
 10
56.563624
 20
49.602994
 30
0.0
 10
56.635426
 20
49.647840
 30
0.0
 10
56.722676
 20
49.663185
 30
0.0
 10
56.726253
 20
49.663130
 30
0.0
 10
56.729861
 20
49.662983
 30
0.0
 10
56.733409
 20
49.662776
 30
0.0
 10
56.736798
 20
49.662538
 30
0.0
 10
56.744775
 20
49.661924
 30
0.0
 10
56.768575
 20
49.660113
 30
0.0
 10
56.808012
 20
49.657073
 30
0.0
 10
56.862896
 20
49.652827
 30
0.0
 10
56.932628
 20
49.647753
 30
0.0
 10
57.016988
 20
49.639648
 30
0.0
 10
57.115596
 20
49.626085
 30
0.0
 10
57.228075
 20
49.604641
 30
0.0
 10
57.490117
 20
49.537955
 30
0.0
 10
57.796608
 20
49.422124
 30
0.0
 10
58.124158
 20
49.237227
 30
0.0
 10
58.449374
 20
48.963345
 30
0.0
 10
58.732264
 20
48.593799
 30
0.0
 10
58.940567
 20
48.137753
 30
0.0
 10
59.053414
 20
47.615069
 30
0.0
 10
59.049935
 20
47.045638
 30
0.0
 10
58.930026
 20
46.453701
 30
0.0
 10
58.667943
 20
45.866372
 30
0.0
 10
58.262612
 20
45.322217
 30
0.0
 10
57.712962
 20
44.859800
 30
0.0
 10
57.390273
 20
44.672472
 30
0.0
 10
57.041324
 20
44.519101
 30
0.0
 10
56.670244
 20
44.402840
 30
0.0
 10
56.281164
 20
44.326842
 30
0.0
 10
56.180706
 20
44.314705
 30
0.0
 10
56.079240
 20
44.301536
 30
0.0
 10
55.978530
 20
44.290916
 30
0.0
 10
55.880342
 20
44.286417
 30
0.0
 10
55.783225
 20
44.281773
 30
0.0
 10
55.681948
 20
44.276431
 30
0.0
 10
55.576383
 20
44.274555
 30
0.0
 10
55.466405
 20
44.280279
 30
0.0
 10
55.253956
 20
44.310986
 30
0.0
 10
55.046709
 20
44.360279
 30
0.0
 10
54.844443
 20
44.425761
 30
0.0
 10
54.646937
 20
44.505039
 30
0.0
 10
53.909176
 20
44.941589
 30
0.0
 10
53.285880
 20
45.547468
 30
0.0
 10
52.802994
 20
46.285717
 30
0.0
 10
52.486462
 20
47.119378
 30
0.0
 10
52.390281
 20
47.559127
 30
0.0
 10
52.330101
 20
48.006941
 30
0.0
 10
52.304976
 20
48.459605
 30
0.0
 10
52.313961
 20
48.913907
 30
0.0
 10
52.349678
 20
49.371261
 30
0.0
 10
52.414587
 20
49.829039
 30
0.0
 10
52.510389
 20
50.284513
 30
0.0
 10
52.638788
 20
50.734954
 30
0.0
 10
52.977944
 20
51.615503
 30
0.0
 10
53.412650
 20
52.458820
 30
0.0
 10
53.922952
 20
53.264058
 30
0.0
 10
54.488895
 20
54.030361
 30
0.0
 10
55.091075
 20
54.765917
 30
0.0
 10
55.715574
 20
55.475702
 30
0.0
 10
56.350665
 20
56.166447
 30
0.0
 10
56.984622
 20
56.844883
 30
0.0
 10
57.609662
 20
57.514471
 30
0.0
 10
58.217143
 20
58.180633
 30
0.0
 10
58.800098
 20
58.845764
 30
0.0
 10
59.351561
 20
59.512260
 30
0.0
 10
59.864180
 20
60.181049
 30
0.0
 10
60.334619
 20
60.851082
 30
0.0
 10
60.756636
 20
61.521782
 30
0.0
 10
61.123991
 20
62.192572
 30
0.0
 10
61.439655
 20
62.857314
 30
0.0
 10
61.703620
 20
63.512112
 30
0.0
 10
61.915759
 20
64.153933
 30
0.0
 10
62.075945
 20
64.779746
 30
0.0
 10
62.188613
 20
65.385094
 30
0.0
 10
62.259795
 20
65.965885
 30
0.0
 10
62.297057
 20
66.518903
 30
0.0
 10
62.307964
 20
67.040936
 30
0.0
 10
62.285777
 20
67.531367
 30
0.0
 10
62.247228
 20
67.986387
 30
0.0
 10
62.196510
 20
68.404539
 30
0.0
 10
62.137817
 20
68.784368
 30
0.0
 10
62.103234
 20
68.959149
 30
0.0
 10
62.069976
 20
69.124864
 30
0.0
 10
62.037096
 20
69.278392
 30
0.0
 10
62.003649
 20
69.416609
 30
0.0
 10
61.970375
 20
69.547367
 30
0.0
 10
61.939717
 20
69.667848
 30
0.0
 10
61.911771
 20
69.777838
 30
0.0
 10
61.886630
 20
69.877126
 30
0.0
 10
61.834767
 20
70.061906
 30
0.0
 10
61.797059
 20
70.195995
 30
0.0
 10
61.774040
 20
70.277693
 30
0.0
 10
61.766249
 20
70.305303
 30
0.0
 10
61.722834
 20
70.951586
 30
0.0
 10
61.933160
 20
71.543144
 30
0.0
 10
62.358798
 20
72.015673
 30
0.0
 10
62.961319
 20
72.304865
 30
0.0
 10
63.633116
 20
72.346619
 30
0.0
 10
64.248105
 20
72.144339
 30
0.0
 10
64.739392
 20
71.734984
 30
0.0
 10
65.040083
 20
71.155513
 30
0.0
 10
65.062928
 20
71.062865
 30
0.0
 10
65.080098
 20
70.968549
 30
0.0
 10
65.091720
 20
70.874416
 30
0.0
 10
65.097920
 20
70.782313
 30
0.0
  0
SPLINE
  5
101
100
AcDbEntity
  8
leaves
 62
7
100
AcDbSpline
 70
0
 71
3
 72
10
 73
6
 74
4
 40
0.000000
 40
0.000000
 40
0.000000
 40
0.000000
 40
0.030946
 40
0.061737
 40
0.092460
 40
0.092460
 40
0.092460
 40
0.092460
 10
69.805265
 20
54.617816
 30
0.0
 10
69.794987
 20
54.616941
 30
0.0
 10
69.774482
 20
54.615195
 30
0.0
 10
69.743762
 20
54.612712
 30
0.0
 10
69.723333
 20
54.610958
 30
0.0
 10
69.713130
 20
54.610082
 30
0.0
 11
69.805265
 21
54.617816
 31
0.0
 11
69.774429
 21
54.615213
 31
0.0
 11
69.743742
 21
54.612684
 31
0.0
 11
69.713130
 21
54.610082
 31
0.0
  0
SPLINE
  5
102
100
AcDbEntity
  8
leaves
 62
7
100
AcDbSpline
 70
0
 71
3
 72
10
 73
6
 74
4
 40
0.000000
 40
0.000000
 40
0.000000
 40
0.000000
 40
3.348734
 40
6.460595
 40
9.132099
 40
9.132099
 40
9.132099
 40
9.132099
 10
69.713130
 20
54.610082
 30
0.0
 10
68.677868
 20
55.056663
 30
0.0
 10
66.680575
 20
55.918236
 30
0.0
 10
64.670752
 20
58.413613
 30
0.0
 10
64.254072
 20
60.310460
 30
0.0
 10
64.061596
 20
61.186668
 30
0.0
 11
69.713130
 21
54.610082
 31
0.0
 11
66.761944
 21
56.192649
 31
0.0
 11
64.821707
 21
58.625582
 31
0.0
 11
64.061596
 21
61.186668
 31
0.0
  0
LWPOLYLINE
  5
103
100
AcDbEntity
  8
leaves
 62
7
100
AcDbPolyline
 90
33
 70
0
 10
69.713097
 20
54.610215
 30
0.0
 10
69.675782
 20
54.607252
 30
0.0
 10
69.638531
 20
54.604415
 30
0.0
 10
69.601406
 20
54.601704
 30
0.0
 10
69.564470
 20
54.599119
 30
0.0
 10
69.583889
 20
54.597269
 30
0.0
 10
69.603308
 20
54.595420
 30
0.0
 10
69.622727
 20
54.593570
 30
0.0
 10
69.642146
 20
54.591721
 30
0.0
 10
69.479506
 20
54.532339
 30
0.0
 10
69.094840
 20
54.431156
 30
0.0
 10
68.643026
 20
54.403615
 30
0.0
 10
68.278945
 20
54.565156
 30
0.0
 10
68.166329
 20
54.520502
 30
0.0
 10
67.892497
 20
54.455577
 30
0.0
 10
67.553473
 20
54.473940
 30
0.0
 10
67.245280
 20
54.679149
 30
0.0
 10
67.132932
 20
54.662220
 30
0.0
 10
66.868542
 20
54.652164
 30
0.0
 10
66.561089
 20
54.710074
 30
0.0
 10
66.319554
 20
54.897046
 30
0.0
 10
65.030714
 20
55.485061
 30
0.0
 10
64.124738
 20
56.313544
 30
0.0
 10
63.615655
 20
57.334200
 30
0.0
 10
63.517494
 20
58.498734
 30
0.0
 10
63.619102
 20
59.191163
 30
0.0
 10
63.780575
 20
59.990681
 30
0.0
 10
63.946526
 20
60.716242
 30
0.0
 10
64.061563
 20
61.186802
 30
0.0
 10
64.514401
 20
59.282185
 30
0.0
 10
65.654851
 20
57.348092
 30
0.0
 10
67.411539
 20
55.689208
 30
0.0
 10
69.713097
 20
54.610215
 30
0.0
  0
SPLINE
  5
104
100
AcDbEntity
  8
leaves
 62
7
100
AcDbSpline
 70
0
 71
3
 72
10
 73
6
 74
4
 40
0.000000
 40
0.000000
 40
0.000000
 40
0.000000
 40
0.028732
 40
0.051954
 40
0.069649
 40
0.069649
 40
0.069649
 40
0.069649
 10
64.061596
 20
61.186668
 30
0.0
 10
64.063860
 20
61.195974
 30
0.0
 10
64.067955
 20
61.212801
 30
0.0
 10
64.073583
 20
61.235325
 30
0.0
 10
64.076952
 20
61.248541
 30
0.0
 10
64.078409
 20
61.254257
 30
0.0
 11
64.061596
 21
61.186668
 31
0.0
 11
64.068421
 21
61.214578
 31
0.0
 11
64.074050
 21
61.237107
 31
0.0
 11
64.078409
 21
61.254257
 31
0.0
  0
SPLINE
  5
105
100
AcDbEntity
  8
leaves
 62
7
100
AcDbSpline
 70
0
 71
3
 72
10
 73
6
 74
4
 40
0.000000
 40
0.000000
 40
0.000000
 40
0.000000
 40
0.630650
 40
1.303951
 40
1.912933
 40
1.912933
 40
1.912933
 40
1.912933
 10
64.789600
 20
61.307386
 30
0.0
 10
64.999645
 20
61.315717
 30
0.0
 10
65.433940
 20
61.332942
 30
0.0
 10
66.071570
 20
61.348385
 30
0.0
 10
66.498945
 20
61.339054
 30
0.0
 10
66.701915
 20
61.334623
 30
0.0
 11
64.789600
 21
61.307386
 31
0.0
 11
65.419815
 21
61.330812
 31
0.0
 11
66.092997
 21
61.343478
 31
0.0
 11
66.701915
 21
61.334623
 31
0.0
  0
SPLINE
  5
106
100
AcDbEntity
  8
leaves
 62
7
100
AcDbSpline
 70
0
 71
3
 72
10
 73
6
 74
4
 40
0.000000
 40
0.000000
 40
0.000000
 40
0.000000
 40
0.374769
 40
0.964326
 40
1.375186
 40
1.375186
 40
1.375186
 40
1.375186
 10
66.701915
 20
61.334623
 30
0.0
 10
66.825819
 20
61.334261
 30
0.0
 10
67.144640
 20
61.333331
 30
0.0
 10
67.628152
 20
61.340248
 30
0.0
 10
67.897382
 20
61.130550
 30
0.0
 10
68.007952
 20
61.044430
 30
0.0
 11
66.701915
 21
61.334623
 31
0.0
 11
67.076684
 21
61.334411
 31
0.0
 11
67.662325
 21
61.266574
 31
0.0
 11
68.007952
 21
61.044430
 31
0.0
  0
SPLINE
  5
107
100
AcDbEntity
  8
leaves
 62
7
100
AcDbSpline
 70
0
 71
3
 72
10
 73
6
 74
4
 40
0.000000
 40
0.000000
 40
0.000000
 40
0.000000
 40
0.060346
 40
0.120381
 40
0.180035
 40
0.180035
 40
0.180035
 40
0.180035
 10
68.007952
 20
61.044430
 30
0.0
 10
68.026136
 20
61.035829
 30
0.0
 10
68.062410
 20
61.018672
 30
0.0
 10
68.116048
 20
60.991736
 30
0.0
 10
68.151176
 20
60.972819
 30
0.0
 10
68.168684
 20
60.963391
 30
0.0
 11
68.007952
 21
61.044430
 31
0.0
 11
68.062401
 21
61.018413
 31
0.0
 11
68.116028
 21
60.991425
 31
0.0
 11
68.168684
 21
60.963391
 31
0.0
  0
SPLINE
  5
108
100
AcDbEntity
  8
leaves
 62
7
100
AcDbSpline
 70
0
 71
3
 72
10
 73
6
 74
4
 40
0.000000
 40
0.000000
 40
0.000000
 40
0.000000
 40
0.274424
 40
0.552085
 40
0.784369
 40
0.784369
 40
0.784369
 40
0.784369
 10
68.168684
 20
60.963391
 30
0.0
 10
68.255601
 20
60.941019
 30
0.0
 10
68.430460
 20
60.896012
 30
0.0
 10
68.697440
 20
60.786739
 30
0.0
 10
68.737071
 20
60.611931
 30
0.0
 10
68.755123
 20
60.532305
 30
0.0
 11
68.168684
 21
60.963391
 31
0.0
 11
68.432661
 21
60.888392
 31
0.0
 11
68.673175
 21
60.749654
 31
0.0
 11
68.755123
 21
60.532305
 31
0.0
  0
SPLINE
  5
109
100
AcDbEntity
  8
leaves
 62
7
100
AcDbSpline
 70
0
 71
3
 72
10
 73
6
 74
4
 40
0.000000
 40
0.000000
 40
0.000000
 40
0.000000
 40
0.031925
 40
0.063902
 40
0.095826
 40
0.095826
 40
0.095826
 40
0.095826
 10
68.755123
 20
60.532305
 30
0.0
 10
68.762747
 20
60.524881
 30
0.0
 10
68.778008
 20
60.510021
 30
0.0
 10
68.800700
 20
60.487539
 30
0.0
 10
68.815602
 20
60.472320
 30
0.0
 10
68.823047
 20
60.464716
 30
0.0
 11
68.755123
 21
60.532305
 31
0.0
 11
68.777964
 21
60.510000
 31
0.0
 11
68.800655
 21
60.487470
 31
0.0
 11
68.823047
 21
60.464716
 31
0.0
  0
SPLINE
  5
10a
100
AcDbEntity
  8
leaves
 62
7
100
AcDbSpline
 70
0
 71
3
 72
10
 73
6
 74
4
 40
0.000000
 40
0.000000
 40
0.000000
 40
0.000000
 40
0.287144
 40
0.624059
 40
0.951318
 40
0.951318
 40
0.951318
 40
0.951318
 10
68.823047
 20
60.464716
 30
0.0
 10
68.907162
 20
60.422328
 30
0.0
 10
69.089971
 20
60.330205
 30
0.0
 10
69.364976
 20
60.112082
 30
0.0
 10
69.345461
 20
59.877737
 30
0.0
 10
69.335845
 20
59.762268
 30
0.0
 11
68.823047
 21
60.464716
 31
0.0
 11
69.074882
 21
60.326762
 31
0.0
 11
69.313340
 21
60.088752
 31
0.0
 11
69.335845
 21
59.762268
 31
0.0
  0
SPLINE
  5
10b
100
AcDbEntity
  8
leaves
 62
7
100
AcDbSpline
 70
0
 71
3
 72
13
 73
9
 74
7
 40
0.000000
 40
0.000000
 40
0.000000
 40
0.000000
 40
0.006249
 40
0.012564
 40
0.018813
 40
0.264671
 40
0.641572
 40
1.024463
 40
1.024463
 40
1.024463
 40
1.024463
 10
69.335845
 20
59.762268
 30
0.0
 10
69.336857
 20
59.760447
 30
0.0
 10
69.338891
 20
59.756786
 30
0.0
 10
69.341882
 20
59.751277
 30
0.0
 10
69.383372
 20
59.675677
 30
0.0
 10
69.570637
 20
59.564538
 30
0.0
 10
69.774542
 20
59.262142
 30
0.0
 10
69.725211
 20
59.004418
 30
0.0
 10
69.700352
 20
58.874540
 30
0.0
 11
69.335845
 21
59.762268
 31
0.0
 11
69.338871
 21
59.756801
 31
0.0
 11
69.341898
 21
59.751258
 31
0.0
 11
69.344924
 21
59.745791
 31
0.0
 11
69.522407
 21
59.575656
 31
0.0
 11
69.723280
 21
59.256744
 31
0.0
 11
69.700352
 21
58.874540
 31
0.0
  0
LWPOLYLINE
  5
10c
100
AcDbEntity
  8
leaves
 62
7
100
AcDbPolyline
 90
4
 70
0
 10
64.078409
 20
61.254257
 30
0.0
 10
64.070003
 20
61.254929
 30
0.0
 10
64.062269
 20
62.045142
 30
0.0
 10
64.789600
 20
61.307386
 30
0.0
  0
LWPOLYLINE
  5
10d
100
AcDbEntity
  8
leaves
 62
7
100
AcDbPolyline
 90
33
 70
0
 10
51.256554
 20
60.054679
 30
0.0
 10
51.266195
 20
60.027248
 30
0.0
 10
51.275931
 20
59.999911
 30
0.0
 10
51.285730
 20
59.972637
 30
0.0
 10
51.295560
 20
59.945394
 30
0.0
 10
51.288078
 20
59.958677
 30
0.0
 10
51.280596
 20
59.971959
 30
0.0
 10
51.273115
 20
59.985241
 30
0.0
 10
51.265633
 20
59.998523
 30
0.0
 10
51.274701
 20
59.864130
 30
0.0
 10
51.324058
 20
59.558652
 30
0.0
 10
51.446930
 20
59.228649
 30
0.0
 10
51.676543
 20
59.020677
 30
0.0
 10
51.680300
 20
58.926535
 30
0.0
 10
51.720467
 20
58.711402
 30
0.0
 10
51.840392
 20
58.476219
 30
0.0
 10
52.083419
 20
58.321928
 30
0.0
 10
52.106805
 20
58.236675
 30
0.0
 10
52.182994
 20
58.045437
 30
0.0
 10
52.321034
 20
57.844994
 30
0.0
 10
52.529973
 20
57.732126
 30
0.0
 10
53.354374
 20
57.001017
 30
0.0
 10
54.229056
 20
56.617969
 30
0.0
 10
55.115277
 20
56.577717
 30
0.0
 10
55.974291
 20
56.874998
 30
0.0
 10
56.434669
 20
57.165464
 30
0.0
 10
56.952263
 20
57.532219
 30
0.0
 10
57.415825
 20
57.878799
 30
0.0
 10
57.714104
 20
58.108738
 30
0.0
 10
56.217019
 20
57.830551
 30
0.0
 10
54.482303
 20
58.031945
 30
0.0
 10
52.749099
 20
58.758221
 30
0.0
 10
51.256554
 20
60.054679
 30
0.0
  0
LWPOLYLINE
  5
10e
100
AcDbEntity
  8
leaves
 62
7
100
AcDbPolyline
 90
61
 70
0
 10
51.232915
 20
60.122570
 30
0.0
 10
51.238768
 20
60.105479
 30
0.0
 10
51.244684
 20
60.088482
 30
0.0
 10
51.250600
 20
60.071548
 30
0.0
 10
51.256453
 20
60.054646
 30
0.0
 10
52.749188
 20
58.758187
 30
0.0
 10
54.482454
 20
58.031912
 30
0.0
 10
56.217107
 20
57.830518
 30
0.0
 10
57.714003
 20
58.108705
 30
0.0
 10
57.727629
 20
58.119350
 30
0.0
 10
57.739267
 20
58.128544
 30
0.0
 10
57.748951
 20
58.136226
 30
0.0
 10
57.756712
 20
58.142331
 30
0.0
 10
57.757553
 20
58.140818
 30
0.0
 10
57.758393
 20
58.139305
 30
0.0
 10
57.759234
 20
58.137792
 30
0.0
 10
57.760074
 20
58.136278
 30
0.0
 10
57.901052
 20
58.197226
 30
0.0
 10
58.042029
 20
58.258173
 30
0.0
 10
58.183006
 20
58.319120
 30
0.0
 10
58.323980
 20
58.380067
 30
0.0
 10
58.135590
 20
58.451187
 30
0.0
 10
57.947200
 20
58.522306
 30
0.0
 10
57.758810
 20
58.593425
 30
0.0
 10
57.570420
 20
58.664544
 30
0.0
 10
57.436893
 20
59.000479
 30
0.0
 10
57.287793
 20
59.362958
 30
0.0
 10
57.134153
 20
59.718375
 30
0.0
 10
56.987008
 20
60.033125
 30
0.0
 10
56.912095
 20
60.207261
 30
0.0
 10
56.761461
 20
60.502671
 30
0.0
 10
56.569088
 20
60.772547
 30
0.0
 10
56.368961
 20
60.870078
 30
0.0
 10
56.342302
 20
60.893028
 30
0.0
 10
56.315327
 20
60.915473
 30
0.0
 10
56.288100
 20
60.937414
 30
0.0
 10
56.260685
 20
60.958851
 30
0.0
 10
56.163069
 20
61.081460
 30
0.0
 10
56.039635
 20
61.197512
 30
0.0
 10
55.903907
 20
61.264512
 30
0.0
 10
55.769408
 20
61.239965
 30
0.0
 10
55.752059
 20
61.246958
 30
0.0
 10
55.734773
 20
61.253793
 30
0.0
 10
55.717487
 20
61.260440
 30
0.0
 10
55.700138
 20
61.266866
 30
0.0
 10
55.575937
 20
61.367082
 30
0.0
 10
55.404103
 20
61.463830
 30
0.0
 10
55.214930
 20
61.497908
 30
0.0
 10
55.038713
 20
61.410113
 30
0.0
 10
55.035176
 20
61.410560
 30
0.0
 10
55.031608
 20
61.410913
 30
0.0
 10
55.027977
 20
61.411202
 30
0.0
 10
55.024254
 20
61.411458
 30
0.0
 10
54.907656
 20
61.462895
 30
0.0
 10
54.707833
 20
61.518304
 30
0.0
 10
54.483295
 20
61.514826
 30
0.0
 10
54.292551
 20
61.389601
 30
0.0
 10
53.478464
 20
61.212150
 30
0.0
 10
52.674212
 20
60.914717
 30
0.0
 10
51.914221
 20
60.537968
 30
0.0
 10
51.232915
 20
60.122570
 30
0.0
  0
LWPOLYLINE
  5
10f
100
AcDbEntity
  8
leaves
 62
7
100
AcDbPolyline
 90
33
 70
0
 10
62.728492
 20
50.616952
 30
0.0
 10
62.700556
 20
50.625027
 30
0.0
 10
62.672715
 20
50.633134
 30
0.0
 10
62.644936
 20
50.641304
 30
0.0
 10
62.617190
 20
50.649569
 30
0.0
 10
62.630808
 20
50.642928
 30
0.0
 10
62.644427
 20
50.636287
 30
0.0
 10
62.658045
 20
50.629646
 30
0.0
 10
62.671664
 20
50.623004
 30
0.0
 10
62.537028
 20
50.624386
 30
0.0
 10
62.229355
 20
50.656252
 30
0.0
 10
61.892994
 20
50.760183
 30
0.0
 10
61.672297
 20
50.977759
 30
0.0
 10
61.578097
 20
50.976157
 30
0.0
 10
61.361046
 20
51.004030
 30
0.0
 10
61.119469
 20
51.110399
 30
0.0
 10
60.951690
 20
51.344284
 30
0.0
 10
60.865250
 20
51.362783
 30
0.0
 10
60.669988
 20
51.427970
 30
0.0
 10
60.461990
 20
51.554378
 30
0.0
 10
60.337342
 20
51.756539
 30
0.0
 10
59.560696
 20
52.538340
 30
0.0
 10
59.128737
 20
53.389968
 30
0.0
 10
59.038378
 20
54.272426
 30
0.0
 10
59.286527
 20
55.146720
 30
0.0
 10
59.550313
 20
55.622807
 30
0.0
 10
59.887173
 20
56.160335
 30
0.0
 10
60.207010
 20
56.642822
 30
0.0
 10
60.419726
 20
56.953785
 30
0.0
 10
60.226838
 20
55.443454
 30
0.0
 10
60.526237
 20
53.722950
 30
0.0
 10
61.349571
 20
52.033655
 30
0.0
 10
62.728492
 20
50.616952
 30
0.0
  0
SPLINE
  5
110
100
AcDbEntity
  8
leaves
 62
7
100
AcDbSpline
 70
0
 71
3
 72
10
 73
6
 74
4
 40
0.000000
 40
0.000000
 40
0.000000
 40
0.000000
 40
1.436184
 40
2.903808
 40
4.288607
 40
4.288607
 40
4.288607
 40
4.288607
 10
69.700352
 20
58.874540
 30
0.0
 10
69.802213
 20
58.405533
 30
0.0
 10
70.008165
 20
57.457252
 30
0.0
 10
69.998119
 20
56.016857
 30
0.0
 10
69.868293
 20
55.075047
 30
0.0
 10
69.805265
 20
54.617816
 30
0.0
 11
69.700352
 21
58.874540
 31
0.0
 11
69.953892
 21
57.460912
 31
0.0
 11
69.965325
 21
55.993333
 31
0.0
 11
69.805265
 21
54.617816
 31
0.0
  0
LWPOLYLINE
  5
111
100
AcDbEntity
  8
leaves
 62
7
100
AcDbPolyline
 90
61
 70
0
 10
62.797625
 20
50.597179
 30
0.0
 10
62.780276
 20
50.602029
 30
0.0
 10
62.762990
 20
50.606973
 30
0.0
 10
62.745704
 20
50.611980
 30
0.0
 10
62.728355
 20
50.617019
 30
0.0
 10
61.349434
 20
52.033722
 30
0.0
 10
60.526100
 20
53.723017
 30
0.0
 10
60.226702
 20
55.443521
 30
0.0
 10
60.419589
 20
56.953851
 30
0.0
 10
60.429483
 20
56.967974
 30
0.0
 10
60.437958
 20
56.980080
 30
0.0
 10
60.444983
 20
56.990168
 30
0.0
 10
60.450525
 20
56.998238
 30
0.0
 10
60.449012
 20
56.999011
 30
0.0
 10
60.447499
 20
56.999785
 30
0.0
 10
60.445986
 20
57.000558
 30
0.0
 10
60.444473
 20
57.001331
 30
0.0
 10
60.497350
 20
57.145587
 30
0.0
 10
60.550227
 20
57.289843
 30
0.0
 10
60.603104
 20
57.434099
 30
0.0
 10
60.655981
 20
57.578355
 30
0.0
 10
60.737692
 20
57.394252
 30
0.0
 10
60.819403
 20
57.210149
 30
0.0
 10
60.901115
 20
57.026047
 30
0.0
 10
60.982826
 20
56.841944
 30
0.0
 10
61.325717
 20
56.727710
 30
0.0
 10
61.696035
 20
56.599349
 30
0.0
 10
62.059543
 20
56.466137
 30
0.0
 10
62.382007
 20
56.337149
 30
0.0
 10
62.560078
 20
56.272120
 30
0.0
 10
62.863616
 20
56.138461
 30
0.0
 10
63.144079
 20
55.961740
 30
0.0
 10
63.252922
 20
55.767524
 30
0.0
 10
63.277380
 20
55.742126
 30
0.0
 10
63.301302
 20
55.716412
 30
0.0
 10
63.324656
 20
55.690446
 30
0.0
 10
63.347411
 20
55.664292
 30
0.0
 10
63.475464
 20
55.573838
 30
0.0
 10
63.598346
 20
55.457155
 30
0.0
 10
63.672933
 20
55.325341
 30
0.0
 10
63.656099
 20
55.189492
 30
0.0
 10
63.664053
 20
55.172784
 30
0.0
 10
63.671819
 20
55.155950
 30
0.0
 10
63.679458
 20
55.138989
 30
0.0
 10
63.687035
 20
55.121903
 30
0.0
 10
63.793981
 20
55.003713
 30
0.0
 10
63.900266
 20
54.837637
 30
0.0
 10
63.945078
 20
54.650692
 30
0.0
 10
63.867607
 20
54.469894
 30
0.0
 10
63.868111
 20
54.466358
 30
0.0
 10
63.868615
 20
54.462790
 30
0.0
 10
63.869120
 20
54.459160
 30
0.0
 10
63.869624
 20
54.455434
 30
0.0
 10
63.927524
 20
54.341862
 30
0.0
 10
63.994125
 20
54.145570
 30
0.0
 10
64.003351
 20
53.921284
 30
0.0
 10
63.889127
 20
53.723731
 30
0.0
 10
63.758112
 20
52.900938
 30
0.0
 10
63.506799
 20
52.081140
 30
0.0
 10
63.173775
 20
51.300999
 30
0.0
 10
62.797625
 20
50.597179
 30
0.0
  0
SPLINE
  5
112
100
AcDbEntity
  8
leaves
 62
7
100
AcDbSpline
 70
0
 71
3
 72
10
 73
6
 74
4
 40
0.000000
 40
0.000000
 40
0.000000
 40
0.000000
 40
0.016562
 40
0.033081
 40
0.049644
 40
0.049644
 40
0.049644
 40
0.049644
 10
51.444929
 20
54.159323
 30
0.0
 10
51.448156
 20
54.154843
 30
0.0
 10
51.454601
 20
54.145896
 30
0.0
 10
51.464175
 20
54.132399
 30
0.0
 10
51.470620
 20
54.123451
 30
0.0
 10
51.473847
 20
54.118972
 30
0.0
 11
51.444929
 21
54.159323
 31
0.0
 11
51.454593
 21
54.145873
 31
0.0
 11
51.464183
 21
54.132422
 31
0.0
 11
51.473847
 21
54.118972
 31
0.0
  0
SPLINE
  5
113
100
AcDbEntity
  8
leaves
 62
7
100
AcDbSpline
 70
0
 71
3
 72
16
 73
12
 74
10
 40
0.000000
 40
0.000000
 40
0.000000
 40
0.000000
 40
0.096493
 40
0.291568
 40
0.471270
 40
0.538929
 40
0.679826
 40
0.839639
 40
0.903173
 40
1.035050
 40
1.170124
 40
1.170124
 40
1.170124
 40
1.170124
 10
51.455353
 20
54.137130
 30
0.0
 10
51.466958
 20
54.107519
 30
0.0
 10
51.502025
 20
54.018046
 30
0.0
 10
51.555853
 20
53.855192
 30
0.0
 10
51.738654
 20
53.826503
 30
0.0
 10
51.766889
 20
53.694695
 30
0.0
 10
51.829181
 20
53.573996
 30
0.0
 10
51.982052
 20
53.580744
 30
0.0
 10
52.033461
 20
53.467536
 30
0.0
 10
52.110197
 20
53.381551
 30
0.0
 10
52.199637
 20
53.363243
 30
0.0
 10
52.244893
 20
53.353979
 30
0.0
 11
51.455353
 21
54.137130
 31
0.0
 11
51.489975
 21
54.047062
 31
0.0
 11
51.587964
 21
53.878383
 31
0.0
 11
51.740502
 21
53.783383
 31
0.0
 11
51.763679
 21
53.719818
 31
0.0
 11
51.842526
 21
53.603048
 31
0.0
 11
51.991016
 21
53.543966
 31
0.0
 11
52.025377
 21
53.490525
 31
0.0
 11
52.116155
 21
53.394865
 31
0.0
 11
52.244893
 21
53.353979
 31
0.0
  0
SPLINE
  5
114
100
AcDbEntity
  8
leaves
 62
7
100
AcDbSpline
 70
0
 71
3
 72
13
 73
9
 74
7
 40
0.000000
 40
0.000000
 40
0.000000
 40
0.000000
 40
0.612502
 40
1.131905
 40
1.645081
 40
1.967679
 40
2.321997
 40
2.559600
 40
2.559600
 40
2.559600
 40
2.559600
 10
52.244893
 20
53.353979
 30
0.0
 10
52.427120
 20
53.255803
 30
0.0
 10
52.763878
 20
53.074373
 30
0.0
 10
53.342151
 20
53.093744
 30
0.0
 10
53.735449
 20
53.351532
 30
0.0
 10
53.984030
 20
53.661057
 30
0.0
 10
54.171808
 20
53.901175
 30
0.0
 10
54.288320
 20
54.060426
 30
0.0
 10
54.335089
 20
54.124352
 30
0.0
 11
52.244893
 21
53.353979
 31
0.0
 11
52.809474
 21
53.116479
 31
0.0
 11
53.328325
 21
53.140441
 31
0.0
 11
53.765127
 21
53.409798
 31
0.0
 11
53.976860
 21
53.653188
 31
0.0
 11
54.193972
 21
53.933194
 31
0.0
 11
54.335089
 21
54.124352
 31
0.0
  0
LWPOLYLINE
  5
115
100
AcDbEntity
  8
leaves
 62
7
100
AcDbPolyline
 90
2
 70
0
 10
51.473847
 20
54.118972
 30
0.0
 10
51.455353
 20
54.137130
 30
0.0
  0
LWPOLYLINE
  5
116
100
AcDbEntity
  8
leaves
 62
7
100
AcDbPolyline
 90
61
 70
0
 10
51.427106
 20
54.184508
 30
0.0
 10
51.431593
 20
54.178204
 30
0.0
 10
51.436017
 20
54.171899
 30
0.0
 10
51.440441
 20
54.165594
 30
0.0
 10
51.444928
 20
54.159289
 30
0.0
 10
52.213478
 20
53.802532
 30
0.0
 10
53.013458
 20
53.709162
 30
0.0
 10
53.751713
 20
53.832112
 30
0.0
 10
54.335089
 20
54.124318
 30
0.0
 10
54.339366
 20
54.130239
 30
0.0
 10
54.343075
 20
54.135372
 30
0.0
 10
54.346155
 20
54.139686
 30
0.0
 10
54.348539
 20
54.143148
 30
0.0
 10
54.349128
 20
54.142644
 30
0.0
 10
54.349716
 20
54.142140
 30
0.0
 10
54.350305
 20
54.141635
 30
0.0
 10
54.350893
 20
54.141131
 30
0.0
 10
54.401668
 20
54.182911
 30
0.0
 10
54.452444
 20
54.224692
 30
0.0
 10
54.503219
 20
54.266472
 30
0.0
 10
54.553994
 20
54.308252
 30
0.0
 10
54.467996
 20
54.315230
 30
0.0
 10
54.381997
 20
54.322207
 30
0.0
 10
54.295998
 20
54.329185
 30
0.0
 10
54.210000
 20
54.336162
 30
0.0
 10
54.115143
 20
54.458650
 30
0.0
 10
54.010765
 20
54.590249
 30
0.0
 10
53.905379
 20
54.718380
 30
0.0
 10
53.807496
 20
54.830465
 30
0.0
 10
53.755859
 20
54.893246
 30
0.0
 10
53.658700
 20
54.997040
 30
0.0
 10
53.547419
 20
55.085388
 30
0.0
 10
53.453413
 20
55.101828
 30
0.0
 10
53.439737
 20
55.108206
 30
0.0
 10
53.425966
 20
55.114269
 30
0.0
 10
53.412132
 20
55.120080
 30
0.0
 10
53.398266
 20
55.125702
 30
0.0
 10
53.343608
 20
55.164472
 30
0.0
 10
53.279020
 20
55.197536
 30
0.0
 10
53.215125
 20
55.208974
 30
0.0
 10
53.162548
 20
55.182866
 30
0.0
 10
53.154677
 20
55.183812
 30
0.0
 10
53.146743
 20
55.184632
 30
0.0
 10
53.138810
 20
55.185325
 30
0.0
 10
53.130939
 20
55.185893
 30
0.0
 10
53.067927
 20
55.212447
 30
0.0
 10
52.985717
 20
55.231876
 30
0.0
 10
52.903821
 20
55.223438
 30
0.0
 10
52.841755
 20
55.166390
 30
0.0
 10
52.840189
 20
55.166137
 30
0.0
 10
52.838561
 20
55.165885
 30
0.0
 10
52.836932
 20
55.165633
 30
0.0
 10
52.835366
 20
55.165381
 30
0.0
 10
52.781286
 20
55.172626
 30
0.0
 10
52.692497
 20
55.171644
 30
0.0
 10
52.600493
 20
55.143487
 30
0.0
 10
52.536767
 20
55.069210
 30
0.0
 10
52.222515
 20
54.899672
 30
0.0
 10
51.926579
 20
54.681838
 30
0.0
 10
51.658322
 20
54.436515
 30
0.0
 10
51.427106
 20
54.184508
 30
0.0
  0
LWPOLYLINE
  5
117
100
AcDbEntity
  8
leaves
 62
7
100
AcDbPolyline
 90
33
 70
0
 10
50.336572
 20
44.251331
 30
0.0
 10
50.348730
 20
44.248761
 30
0.0
 10
50.360951
 20
44.246161
 30
0.0
 10
50.373172
 20
44.243623
 30
0.0
 10
50.385330
 20
44.241243
 30
0.0
 10
50.378773
 20
44.241495
 30
0.0
 10
50.372216
 20
44.241747
 30
0.0
 10
50.365659
 20
44.242000
 30
0.0
 10
50.359102
 20
44.242252
 30
0.0
 10
50.410245
 20
44.215456
 30
0.0
 10
50.532948
 20
44.165080
 30
0.0
 10
50.681124
 20
44.136140
 30
0.0
 10
50.808682
 20
44.173655
 30
0.0
 10
50.843932
 20
44.153957
 30
0.0
 10
50.931543
 20
44.120483
 30
0.0
 10
51.044312
 20
44.111662
 30
0.0
 10
51.155031
 20
44.165921
 30
0.0
 10
51.191405
 20
44.155391
 30
0.0
 10
51.278312
 20
44.140449
 30
0.0
 10
51.382432
 20
44.146060
 30
0.0
 10
51.470443
 20
44.197193
 30
0.0
 10
51.922131
 20
44.334923
 30
0.0
 10
52.257840
 20
44.568929
 30
0.0
 10
52.470793
 20
44.883890
 30
0.0
 10
52.554211
 20
45.264484
 30
0.0
 10
52.551028
 20
45.497670
 30
0.0
 10
52.532775
 20
45.768875
 30
0.0
 10
52.509857
 20
46.015869
 30
0.0
 10
52.492676
 20
46.176423
 30
0.0
 10
52.259437
 20
45.566987
 30
0.0
 10
51.797709
 20
44.977948
 30
0.0
 10
51.144439
 20
44.506873
 30
0.0
 10
50.336572
 20
44.251331
 30
0.0
  0
LWPOLYLINE
  5
118
100
AcDbEntity
  8
leaves
 62
7
100
AcDbPolyline
 90
61
 70
0
 10
50.306445
 20
44.257888
 30
0.0
 10
50.314011
 20
44.256180
 30
0.0
 10
50.321577
 20
44.254567
 30
0.0
 10
50.329143
 20
44.253017
 30
0.0
 10
50.336708
 20
44.251499
 30
0.0
 10
51.144522
 20
44.507041
 30
0.0
 10
51.797677
 20
44.978116
 30
0.0
 10
52.259289
 20
45.567156
 30
0.0
 10
52.492476
 20
46.176591
 30
0.0
 10
52.491724
 20
46.183900
 30
0.0
 10
52.491005
 20
46.190168
 30
0.0
 10
52.490348
 20
46.195364
 30
0.0
 10
52.489786
 20
46.199457
 30
0.0
 10
52.490542
 20
46.199457
 30
0.0
 10
52.491299
 20
46.199457
 30
0.0
 10
52.492055
 20
46.199457
 30
0.0
 10
52.492812
 20
46.199457
 30
0.0
 10
52.502059
 20
46.264608
 30
0.0
 10
52.511306
 20
46.329758
 30
0.0
 10
52.520554
 20
46.394909
 30
0.0
 10
52.529801
 20
46.460059
 30
0.0
 10
52.461708
 20
46.407098
 30
0.0
 10
52.393615
 20
46.354137
 30
0.0
 10
52.325522
 20
46.301176
 30
0.0
 10
52.257430
 20
46.248215
 30
0.0
 10
52.104673
 20
46.274685
 30
0.0
 10
51.938738
 20
46.301344
 30
0.0
 10
51.774444
 20
46.324725
 30
0.0
 10
51.626604
 20
46.341359
 30
0.0
 10
51.546086
 20
46.352908
 30
0.0
 10
51.404378
 20
46.363889
 30
0.0
 10
51.262734
 20
46.353937
 30
0.0
 10
51.182404
 20
46.302689
 30
0.0
 10
51.167898
 20
46.298029
 30
0.0
 10
51.153612
 20
46.293148
 30
0.0
 10
51.139515
 20
46.288078
 30
0.0
 10
51.125576
 20
46.282850
 30
0.0
 10
51.058933
 20
46.274643
 30
0.0
 10
50.988886
 20
46.255529
 30
0.0
 10
50.933970
 20
46.220904
 30
0.0
 10
50.912723
 20
46.166167
 30
0.0
 10
50.906418
 20
46.161376
 30
0.0
 10
50.900113
 20
46.156584
 30
0.0
 10
50.893808
 20
46.151792
 30
0.0
 10
50.887503
 20
46.147000
 30
0.0
 10
50.823136
 20
46.123956
 30
0.0
 10
50.749342
 20
46.082691
 30
0.0
 10
50.694527
 20
46.021123
 30
0.0
 10
50.687092
 20
45.937174
 30
0.0
 10
50.686278
 20
45.935913
 30
0.0
 10
50.685369
 20
45.934652
 30
0.0
 10
50.684397
 20
45.933391
 30
0.0
 10
50.683393
 20
45.932130
 30
0.0
 10
50.638597
 20
45.901015
 30
0.0
 10
50.573688
 20
45.840331
 30
0.0
 10
50.524794
 20
45.757453
 30
0.0
 10
50.528041
 20
45.659759
 30
0.0
 10
50.410712
 20
45.322452
 30
0.0
 10
50.339441
 20
44.961976
 30
0.0
 10
50.307070
 20
44.599923
 30
0.0
 10
50.306445
 20
44.257888
 30
0.0
  0
LWPOLYLINE
  5
119
100
AcDbEntity
  8
leaves
 62
7
100
AcDbPolyline
 90
33
 70
0
 10
59.160497
 20
66.804676
 30
0.0
 10
59.171142
 20
66.798177
 30
0.0
 10
59.181850
 20
66.791772
 30
0.0
 10
59.192558
 20
66.785430
 30
0.0
 10
59.203203
 20
66.779120
 30
0.0
 10
59.197150
 20
66.781474
 30
0.0
 10
59.191097
 20
66.783828
 30
0.0
 10
59.185045
 20
66.786182
 30
0.0
 10
59.178992
 20
66.788535
 30
0.0
 10
59.218566
 20
66.746545
 30
0.0
 10
59.318036
 20
66.658907
 30
0.0
 10
59.448526
 20
66.583122
 30
0.0
 10
59.581160
 20
66.576691
 30
0.0
 10
59.608034
 20
66.546580
 30
0.0
 10
59.679894
 20
66.486363
 30
0.0
 10
59.783594
 20
66.441215
 30
0.0
 10
59.905987
 20
66.456310
 30
0.0
 10
59.936908
 20
66.434448
 30
0.0
 10
60.014137
 20
66.391874
 30
0.0
 10
60.114380
 20
66.363108
 30
0.0
 10
60.214339
 20
66.382669
 30
0.0
 10
60.686249
 20
66.365178
 30
0.0
 10
61.080042
 20
66.476528
 30
0.0
 10
61.384305
 20
66.704455
 30
0.0
 10
61.587627
 20
67.036696
 30
0.0
 10
61.660890
 20
67.258160
 30
0.0
 10
61.732387
 20
67.520449
 30
0.0
 10
61.791527
 20
67.761364
 30
0.0
 10
61.827717
 20
67.918708
 30
0.0
 10
61.407985
 20
67.419166
 30
0.0
 10
60.778962
 20
67.013536
 30
0.0
 10
60.007512
 20
66.781984
 30
0.0
 10
59.160497
 20
66.804676
 30
0.0
  0
LWPOLYLINE
  5
11a
100
AcDbEntity
  8
leaves
 62
7
100
AcDbPolyline
 90
61
 70
0
 10
59.134166
 20
66.820716
 30
0.0
 10
59.140723
 20
66.816680
 30
0.0
 10
59.147280
 20
66.812645
 30
0.0
 10
59.153837
 20
66.808610
 30
0.0
 10
59.160394
 20
66.804575
 30
0.0
 10
60.007409
 20
66.781888
 30
0.0
 10
60.778859
 20
67.013477
 30
0.0
 10
61.407882
 20
67.419207
 30
0.0
 10
61.827614
 20
67.918943
 30
0.0
 10
61.829254
 20
67.926057
 30
0.0
 10
61.830641
 20
67.932225
 30
0.0
 10
61.831776
 20
67.937385
 30
0.0
 10
61.832658
 20
67.941472
 30
0.0
 10
61.833331
 20
67.941220
 30
0.0
 10
61.834003
 20
67.940968
 30
0.0
 10
61.834676
 20
67.940716
 30
0.0
 10
61.835348
 20
67.940464
 30
0.0
 10
61.865444
 20
67.999057
 30
0.0
 10
61.895539
 20
68.057650
 30
0.0
 10
61.925634
 20
68.116244
 30
0.0
 10
61.955730
 20
68.174837
 30
0.0
 10
61.873934
 20
68.147012
 30
0.0
 10
61.792139
 20
68.119186
 30
0.0
 10
61.710343
 20
68.091361
 30
0.0
 10
61.628548
 20
68.063535
 30
0.0
 10
61.492982
 20
68.138400
 30
0.0
 10
61.344996
 20
68.217837
 30
0.0
 10
61.197388
 20
68.293679
 30
0.0
 10
61.062957
 20
68.357763
 30
0.0
 10
60.990851
 20
68.395020
 30
0.0
 10
60.860613
 20
68.451790
 30
0.0
 10
60.723439
 20
68.488700
 30
0.0
 10
60.630526
 20
68.466375
 30
0.0
 10
60.615452
 20
68.466754
 30
0.0
 10
60.600473
 20
68.466880
 30
0.0
 10
60.585557
 20
68.466754
 30
0.0
 10
60.570672
 20
68.466375
 30
0.0
 10
60.504938
 20
68.480398
 30
0.0
 10
60.432427
 20
68.485248
 30
0.0
 10
60.369183
 20
68.470489
 30
0.0
 10
60.331254
 20
68.425688
 30
0.0
 10
60.323688
 20
68.423355
 30
0.0
 10
60.316122
 20
68.420896
 30
0.0
 10
60.308557
 20
68.418311
 30
0.0
 10
60.300991
 20
68.415600
 30
0.0
 10
60.232656
 20
68.415043
 30
0.0
 10
60.149505
 20
68.400300
 30
0.0
 10
60.077703
 20
68.360085
 30
0.0
 10
60.043415
 20
68.283113
 30
0.0
 10
60.041959
 20
68.282300
 30
0.0
 10
60.040597
 20
68.281392
 30
0.0
 10
60.039299
 20
68.280420
 30
0.0
 10
60.038035
 20
68.279414
 30
0.0
 10
59.985405
 20
68.264792
 30
0.0
 10
59.904245
 20
68.228765
 30
0.0
 10
59.830967
 20
68.166447
 30
0.0
 10
59.801980
 20
68.072950
 30
0.0
 10
59.580789
 20
67.792646
 30
0.0
 10
59.395567
 20
67.475331
 30
0.0
 10
59.246598
 20
67.143767
 30
0.0
 10
59.134166
 20
66.820716
 30
0.0
  0
LWPOLYLINE
  5
11b
100
AcDbEntity
  8
leaves
 62
7
100
AcDbPolyline
 90
229
 70
0
 10
28.408593
 20
12.575349
 30
0.0
 10
28.406618
 20
12.582715
 30
0.0
 10
28.401030
 20
12.604700
 30
0.0
 10
28.391801
 20
12.641132
 30
0.0
 10
28.378988
 20
12.691805
 30
0.0
 10
28.362591
 20
12.756505
 30
0.0
 10
28.342469
 20
12.834291
 30
0.0
 10
28.319326
 20
12.935730
 30
0.0
 10
28.293870
 20
13.071383
 30
0.0
 10
28.266184
 20
13.224697
 30
0.0
 10
28.244312
 20
13.387201
 30
0.0
 10
28.226532
 20
13.560516
 30
0.0
 10
28.211100
 20
13.746258
 30
0.0
 10
28.209604
 20
13.844469
 30
0.0
 10
28.208108
 20
13.946331
 30
0.0
 10
28.206584
 20
14.051758
 30
0.0
 10
28.205089
 20
14.160668
 30
0.0
 10
28.211661
 20
14.272236
 30
0.0
 10
28.218203
 20
14.387258
 30
0.0
 10
28.226063
 20
14.505467
 30
0.0
 10
28.236590
 20
14.626583
 30
0.0
 10
28.316527
 20
15.138590
 30
0.0
 10
28.454088
 20
15.690329
 30
0.0
 10
28.658752
 20
16.272469
 30
0.0
 10
28.940018
 20
16.875679
 30
0.0
 10
29.307231
 20
17.486690
 30
0.0
 10
29.758894
 20
18.096002
 30
0.0
 10
30.295765
 20
18.691373
 30
0.0
 10
30.918596
 20
19.260570
 30
0.0
 10
31.615882
 20
19.800659
 30
0.0
 10
32.386905
 20
20.297392
 30
0.0
 10
33.221456
 20
20.751217
 30
0.0
 10
34.109324
 20
21.162570
 30
0.0
 10
35.044857
 20
21.529177
 30
0.0
 10
36.022554
 20
21.846919
 30
0.0
 10
37.035438
 20
22.120051
 30
0.0
 10
38.076536
 20
22.352822
 30
0.0
 10
39.141919
 20
22.546054
 30
0.0
 10
40.226782
 20
22.701999
 30
0.0
 10
41.327352
 20
22.823101
 30
0.0
 10
42.439861
 20
22.911800
 30
0.0
 10
42.719602
 20
22.927153
 30
0.0
 10
42.999815
 20
22.943211
 30
0.0
 10
43.280468
 20
22.958339
 30
0.0
 10
43.561528
 20
22.970926
 30
0.0
 10
43.842720
 20
22.978207
 30
0.0
 10
44.124287
 20
22.985545
 30
0.0
 10
44.406230
 20
22.992883
 30
0.0
 10
44.688554
 20
23.000164
 30
0.0
 10
45.252716
 20
23.001857
 30
0.0
 10
45.819266
 20
23.000728
 30
0.0
 10
46.380789
 20
22.997088
 30
0.0
 10
46.929870
 20
22.991641
 30
0.0
 10
48.017577
 20
23.009534
 30
0.0
 10
49.097334
 20
23.073516
 30
0.0
 10
50.162073
 20
23.190509
 30
0.0
 10
51.204726
 20
23.367423
 30
0.0
 10
52.213815
 20
23.610884
 30
0.0
 10
53.175304
 20
23.931853
 30
0.0
 10
54.066982
 20
24.337824
 30
0.0
 10
54.866639
 20
24.836285
 30
0.0
 10
55.549080
 20
25.423860
 30
0.0
 10
56.094286
 20
26.090811
 30
0.0
 10
56.495346
 20
26.816641
 30
0.0
 10
56.745350
 20
27.580856
 30
0.0
 10
56.771512
 20
27.676575
 30
0.0
 10
56.792566
 20
27.773061
 30
0.0
 10
56.809781
 20
27.870095
 30
0.0
 10
56.824457
 20
27.967461
 30
0.0
 10
56.839499
 20
28.064286
 30
0.0
 10
56.856263
 20
28.160617
 30
0.0
 10
56.870685
 20
28.256948
 30
0.0
 10
56.878728
 20
28.353773
 30
0.0
 10
56.885022
 20
28.450620
 30
0.0
 10
56.891315
 20
28.547112
 30
0.0
 10
56.897609
 20
28.643217
 30
0.0
 10
56.903902
 20
28.738913
 30
0.0
 10
56.909518
 20
28.820365
 30
0.0
 10
56.908672
 20
28.919264
 30
0.0
 10
56.903140
 20
29.018934
 30
0.0
 10
56.894391
 20
29.102689
 30
0.0
 10
56.870374
 20
29.267879
 30
0.0
 10
56.832037
 20
29.438666
 30
0.0
 10
56.781068
 20
29.609230
 30
0.0
 10
56.719134
 20
29.773760
 30
0.0
 10
56.649902
 20
29.935377
 30
0.0
 10
56.570462
 20
30.091480
 30
0.0
 10
56.481658
 20
30.241492
 30
0.0
 10
56.384342
 20
30.384836
 30
0.0
 10
56.168595
 20
30.651697
 30
0.0
 10
55.923629
 20
30.884919
 30
0.0
 10
55.653404
 20
31.080279
 30
0.0
 10
55.361874
 20
31.233551
 30
0.0
 10
55.056797
 20
31.347039
 30
0.0
 10
54.744995
 20
31.418441
 30
0.0
 10
54.428291
 20
31.452417
 30
0.0
 10
54.108508
 20
31.453546
 30
0.0
 10
53.515452
 20
31.380617
 30
0.0
 10
52.990948
 20
31.219124
 30
0.0
 10
52.550018
 20
30.991122
 30
0.0
 10
52.207676
 20
30.718674
 30
0.0
 10
51.959804
 20
30.427527
 30
0.0
 10
51.802637
 20
30.141072
 30
0.0
 10
51.717039
 20
29.876511
 30
0.0
 10
51.683878
 20
29.651049
 30
0.0
 10
51.684442
 20
29.554527
 30
0.0
 10
51.686982
 20
29.470185
 30
0.0
 10
51.692909
 20
29.398356
 30
0.0
 10
51.703351
 20
29.339366
 30
0.0
 10
51.710435
 20
29.292918
 30
0.0
 10
51.715571
 20
29.259506
 30
0.0
 10
51.718704
 20
29.239327
 30
0.0
 10
51.719833
 20
29.232553
 30
0.0
 10
51.720679
 20
29.226711
 30
0.0
 10
51.721526
 20
29.220841
 30
0.0
 10
51.722373
 20
29.214999
 30
0.0
 10
51.723219
 20
29.209157
 30
0.0
 10
51.717885
 20
29.138142
 30
0.0
 10
51.683011
 20
29.076510
 30
0.0
 10
51.624261
 20
29.030790
 30
0.0
 10
51.547291
 20
29.007507
 30
0.0
 10
51.468065
 20
29.011740
 30
0.0
 10
51.398828
 20
29.040625
 30
0.0
 10
51.346433
 20
29.089540
 30
0.0
 10
51.317728
 20
29.153847
 30
0.0
 10
51.316035
 20
29.162032
 30
0.0
 10
51.311124
 20
29.186416
 30
0.0
 10
51.302968
 20
29.226703
 30
0.0
 10
51.291538
 20
29.282628
 30
0.0
 10
51.276467
 20
29.354135
 30
0.0
 10
51.265517
 20
29.441579
 30
0.0
 10
51.258038
 20
29.544663
 30
0.0
 10
51.253353
 20
29.663086
 30
0.0
 10
51.282467
 20
29.942176
 30
0.0
 10
51.374957
 20
30.271526
 30
0.0
 10
51.553598
 20
30.629415
 30
0.0
 10
51.841163
 20
30.994106
 30
0.0
 10
52.242951
 20
31.337082
 30
0.0
 10
52.759697
 20
31.627023
 30
0.0
 10
53.377171
 20
31.838658
 30
0.0
 10
54.081141
 20
31.946718
 30
0.0
 10
54.451106
 20
31.956370
 30
0.0
 10
54.842125
 20
31.926046
 30
0.0
 10
55.240558
 20
31.848477
 30
0.0
 10
55.632771
 20
31.716397
 30
0.0
 10
56.009910
 20
31.533105
 30
0.0
 10
56.357895
 20
31.299024
 30
0.0
 10
56.671822
 20
31.020993
 30
0.0
 10
56.946794
 20
30.705838
 30
0.0
 10
57.070574
 20
30.536993
 30
0.0
 10
57.184022
 20
30.360793
 30
0.0
 10
57.286344
 20
30.177569
 30
0.0
 10
57.376760
 20
29.987650
 30
0.0
 10
57.458573
 20
29.791686
 30
0.0
 10
57.527565
 20
29.591388
 30
0.0
 10
57.582988
 20
29.382089
 30
0.0
 10
57.624083
 20
29.159128
 30
0.0
 10
57.652079
 20
28.731268
 30
0.0
 10
57.642004
 20
28.307412
 30
0.0
 10
57.599001
 20
27.881254
 30
0.0
 10
57.528234
 20
27.446479
 30
0.0
 10
57.279136
 20
26.572166
 30
0.0
 10
56.848728
 20
25.719635
 30
0.0
 10
56.246336
 20
24.923077
 30
0.0
 10
55.481291
 20
24.216677
 30
0.0
 10
54.588627
 20
23.617881
 30
0.0
 10
53.605385
 20
23.130726
 30
0.0
 10
52.557485
 20
22.743604
 30
0.0
 10
51.470845
 20
22.444914
 30
0.0
 10
50.357730
 20
22.220364
 30
0.0
 10
49.228273
 20
22.060979
 30
0.0
 10
48.089391
 20
21.958499
 30
0.0
 10
46.947997
 20
21.904662
 30
0.0
 10
46.381405
 20
21.892978
 30
0.0
 10
45.827758
 20
21.879601
 30
0.0
 10
45.280267
 20
21.863965
 30
0.0
 10
44.732149
 20
21.845565
 30
0.0
 10
44.459765
 20
21.830183
 30
0.0
 10
44.187570
 20
21.814831
 30
0.0
 10
43.915626
 20
21.799478
 30
0.0
 10
43.643996
 20
21.784125
 30
0.0
 10
43.373777
 20
21.763720
 30
0.0
 10
43.104404
 20
21.740860
 30
0.0
 10
42.835726
 20
21.717182
 30
0.0
 10
42.567578
 20
21.694293
 30
0.0
 10
41.505827
 20
21.576762
 30
0.0
 10
40.462990
 20
21.429434
 30
0.0
 10
39.443530
 20
21.250719
 30
0.0
 10
38.451906
 20
21.039024
 30
0.0
 10
37.493352
 20
20.793310
 30
0.0
 10
36.572187
 20
20.513848
 30
0.0
 10
35.696014
 20
20.198386
 30
0.0
 10
34.872433
 20
19.844680
 30
0.0
 10
34.105621
 20
19.458554
 30
0.0
 10
33.399098
 20
19.043922
 30
0.0
 10
32.761005
 20
18.602236
 30
0.0
 10
32.199478
 20
18.134955
 30
0.0
 10
31.709456
 20
17.654909
 30
0.0
 10
31.298952
 20
17.165152
 30
0.0
 10
30.963289
 20
16.674844
 30
0.0
 10
30.697780
 20
16.193150
 30
0.0
 10
30.502154
 20
15.726180
 30
0.0
 10
30.365878
 20
15.282721
 30
0.0
 10
30.280187
 20
14.868729
 30
0.0
 10
30.236312
 20
14.490159
 30
0.0
 10
30.226632
 20
14.152040
 30
0.0
 10
30.243932
 20
13.853074
 30
0.0
 10
30.276933
 20
13.604207
 30
0.0
 10
30.314392
 20
13.416388
 30
0.0
 10
30.329773
 20
13.339963
 30
0.0
 10
30.351730
 20
13.257805
 30
0.0
 10
30.374872
 20
13.179869
 30
0.0
 10
30.393838
 20
13.116121
 30
0.0
 10
30.408654
 20
13.065832
 30
0.0
 10
30.419350
 20
13.029673
 30
0.0
 10
30.425842
 20
13.007829
 30
0.0
 10
30.428099
 20
13.000520
 30
0.0
 10
30.450875
 20
12.640777
 30
0.0
 10
30.318510
 20
12.312696
 30
0.0
 10
30.054945
 20
12.051889
 30
0.0
 10
29.684119
 20
11.893972
 30
0.0
 10
29.272176
 20
11.874075
 30
0.0
 10
28.896491
 20
11.989665
 30
0.0
 10
28.597840
 20
12.219834
 30
0.0
 10
28.417009
 20
12.543673
 30
0.0
 10
28.414751
 20
12.551151
 30
0.0
 10
28.412494
 20
12.559449
 30
0.0
 10
28.410236
 20
12.567774
 30
0.0
 10
28.408260
 20
12.575281
 30
0.0
  0
LWPOLYLINE
  5
11c
100
AcDbEntity
  8
leaves
 62
7
100
AcDbPolyline
 90
173
 70
0
 10
53.192807
 20
23.850610
 30
0.0
 10
53.200163
 20
23.853599
 30
0.0
 10
53.221894
 20
23.862421
 30
0.0
 10
53.257495
 20
23.876854
 30
0.0
 10
53.306463
 20
23.896677
 30
0.0
 10
53.369801
 20
23.921676
 30
0.0
 10
53.445969
 20
23.951656
 30
0.0
 10
53.534432
 20
23.986427
 30
0.0
 10
53.634654
 20
24.025801
 30
0.0
 10
53.873730
 20
24.114086
 30
0.0
 10
54.155647
 20
24.212048
 30
0.0
 10
54.478106
 20
24.316000
 30
0.0
 10
54.838803
 20
24.422253
 30
0.0
 10
55.234004
 20
24.527119
 30
0.0
 10
55.660792
 20
24.625648
 30
0.0
 10
56.115827
 20
24.713018
 30
0.0
 10
56.595765
 20
24.784405
 30
0.0
 10
57.096815
 20
24.833746
 30
0.0
 10
57.615896
 20
24.854053
 30
0.0
 10
58.147713
 20
24.831550
 30
0.0
 10
58.686970
 20
24.752461
 30
0.0
 10
58.955701
 20
24.684389
 30
0.0
 10
59.221751
 20
24.593241
 30
0.0
 10
59.479921
 20
24.473848
 30
0.0
 10
59.725007
 20
24.321038
 30
0.0
 10
59.947176
 20
24.131046
 30
0.0
 10
60.135455
 20
23.906975
 30
0.0
 10
60.282186
 20
23.657748
 30
0.0
 10
60.379707
 20
23.392286
 30
0.0
 10
60.414394
 20
23.258717
 30
0.0
 10
60.437291
 20
23.125463
 30
0.0
 10
60.450731
 20
22.993471
 30
0.0
 10
60.457047
 20
22.863684
 30
0.0
 10
60.457618
 20
22.847628
 30
0.0
 10
60.458224
 20
22.831572
 30
0.0
 10
60.458829
 20
22.815515
 30
0.0
 10
60.459401
 20
22.799459
 30
0.0
 10
60.459569
 20
22.795508
 30
0.0
 10
60.459737
 20
22.791556
 30
0.0
 10
60.459905
 20
22.787605
 30
0.0
 10
60.460073
 20
22.783654
 30
0.0
 10
60.459905
 20
22.777938
 30
0.0
 10
60.459737
 20
22.772221
 30
0.0
 10
60.459569
 20
22.766505
 30
0.0
 10
60.459401
 20
22.760789
 30
0.0
 10
60.459064
 20
22.753643
 30
0.0
 10
60.458728
 20
22.746498
 30
0.0
 10
60.458392
 20
22.739352
 30
0.0
 10
60.458056
 20
22.732206
 30
0.0
 10
60.456711
 20
22.703877
 30
0.0
 10
60.455365
 20
22.675547
 30
0.0
 10
60.454020
 20
22.647217
 30
0.0
 10
60.452675
 20
22.618887
 30
0.0
 10
60.446008
 20
22.555291
 30
0.0
 10
60.439183
 20
22.490435
 30
0.0
 10
60.430782
 20
22.426335
 30
0.0
 10
60.419386
 20
22.365010
 30
0.0
 10
60.361785
 20
22.126354
 30
0.0
 10
60.275340
 20
21.900844
 30
0.0
 10
60.162477
 20
21.694059
 30
0.0
 10
60.025624
 20
21.511580
 30
0.0
 10
59.873477
 20
21.355897
 30
0.0
 10
59.712566
 20
21.227986
 30
0.0
 10
59.548880
 20
21.125106
 30
0.0
 10
59.388410
 20
21.044514
 30
0.0
 10
59.234382
 20
20.980251
 30
0.0
 10
59.089054
 20
20.931404
 30
0.0
 10
58.953941
 20
20.894473
 30
0.0
 10
58.830554
 20
20.865960
 30
0.0
 10
58.719425
 20
20.845632
 30
0.0
 10
58.621442
 20
20.829938
 30
0.0
 10
58.537140
 20
20.818720
 30
0.0
 10
58.467056
 20
20.811822
 30
0.0
 10
58.411662
 20
20.806084
 30
0.0
 10
58.371432
 20
20.801986
 30
0.0
 10
58.346901
 20
20.799527
 30
0.0
 10
58.338604
 20
20.798707
 30
0.0
 10
58.257040
 20
20.806352
 30
0.0
 10
58.187203
 20
20.843472
 30
0.0
 10
58.136406
 20
20.904109
 30
0.0
 10
58.111965
 20
20.982306
 30
0.0
 10
58.119225
 20
21.062441
 30
0.0
 10
58.154921
 20
21.131353
 30
0.0
 10
58.213440
 20
21.182234
 30
0.0
 10
58.289173
 20
21.208273
 30
0.0
 10
58.292535
 20
21.208693
 30
0.0
 10
58.295898
 20
21.209114
 30
0.0
 10
58.299261
 20
21.209534
 30
0.0
 10
58.302623
 20
21.209954
 30
0.0
 10
58.310098
 20
21.211004
 30
0.0
 10
58.332170
 20
21.214074
 30
0.0
 10
58.368303
 20
21.219034
 30
0.0
 10
58.417959
 20
21.225759
 30
0.0
 10
58.480987
 20
21.233551
 30
0.0
 10
58.555742
 20
21.245724
 30
0.0
 10
58.641720
 20
21.262122
 30
0.0
 10
58.738415
 20
21.282587
 30
0.0
 10
58.957169
 20
21.344422
 30
0.0
 10
59.200984
 20
21.443866
 30
0.0
 10
59.446628
 20
21.594064
 30
0.0
 10
59.670869
 20
21.808162
 30
0.0
 10
59.765443
 20
21.941747
 30
0.0
 10
59.842867
 20
22.093774
 30
0.0
 10
59.901628
 20
22.262634
 30
0.0
 10
59.940214
 20
22.446721
 30
0.0
 10
59.947763
 20
22.494118
 30
0.0
 10
59.952444
 20
22.540412
 30
0.0
 10
59.956052
 20
22.587021
 30
0.0
 10
59.960386
 20
22.635363
 30
0.0
 10
59.960891
 20
22.663777
 30
0.0
 10
59.961395
 20
22.692191
 30
0.0
 10
59.961900
 20
22.720605
 30
0.0
 10
59.962404
 20
22.749020
 30
0.0
 10
59.962572
 20
22.756165
 30
0.0
 10
59.962740
 20
22.763311
 30
0.0
 10
59.962908
 20
22.770456
 30
0.0
 10
59.963076
 20
22.777602
 30
0.0
 10
59.963124
 20
22.780245
 30
0.0
 10
59.963203
 20
22.785126
 30
0.0
 10
59.963218
 20
22.787675
 30
0.0
 10
59.963080
 20
22.783318
 30
0.0
 10
59.962828
 20
22.786513
 30
0.0
 10
59.962575
 20
22.789707
 30
0.0
 10
59.962323
 20
22.792902
 30
0.0
 10
59.962071
 20
22.796096
 30
0.0
 10
59.961230
 20
22.808790
 30
0.0
 10
59.960390
 20
22.821484
 30
0.0
 10
59.959549
 20
22.834178
 30
0.0
 10
59.958708
 20
22.846871
 30
0.0
 10
59.951422
 20
22.948827
 30
0.0
 10
59.938997
 20
23.050183
 30
0.0
 10
59.919699
 20
23.149837
 30
0.0
 10
59.891793
 20
23.246685
 30
0.0
 10
59.818787
 20
23.433562
 30
0.0
 10
59.713532
 20
23.603794
 30
0.0
 10
59.578708
 20
23.755868
 30
0.0
 10
59.416992
 20
23.888271
 30
0.0
 10
59.230531
 20
23.998454
 30
0.0
 10
59.025375
 20
24.087295
 30
0.0
 10
58.806285
 20
24.156906
 30
0.0
 10
58.578022
 20
24.209400
 30
0.0
 10
58.104241
 20
24.267893
 30
0.0
 10
57.622958
 20
24.277114
 30
0.0
 10
57.143818
 20
24.247938
 30
0.0
 10
56.676468
 20
24.191242
 30
0.0
 10
56.225584
 20
24.113791
 30
0.0
 10
55.796137
 20
24.021304
 30
0.0
 10
55.392162
 20
23.918539
 30
0.0
 10
55.017694
 20
23.810258
 30
0.0
 10
54.676105
 20
23.701115
 30
0.0
 10
54.370140
 20
23.594841
 30
0.0
 10
54.103643
 20
23.495566
 30
0.0
 10
53.880460
 20
23.407418
 30
0.0
 10
53.784573
 20
23.367151
 30
0.0
 10
53.699972
 20
23.331675
 30
0.0
 10
53.627098
 20
23.301118
 30
0.0
 10
53.566393
 20
23.275604
 30
0.0
 10
53.517866
 20
23.254703
 30
0.0
 10
53.482580
 20
23.239540
 30
0.0
 10
53.461038
 20
23.230303
 30
0.0
 10
53.453745
 20
23.227182
 30
0.0
 10
53.322535
 20
23.199246
 30
0.0
 10
53.195203
 20
23.223105
 30
0.0
 10
53.086092
 20
23.293053
 30
0.0
 10
53.009545
 20
23.403383
 30
0.0
 10
52.981798
 20
23.534735
 30
0.0
 10
53.005720
 20
23.662051
 30
0.0
 10
53.075604
 20
23.771084
 30
0.0
 10
53.185746
 20
23.847583
 30
0.0
 10
53.187464
 20
23.848387
 30
0.0
 10
53.189402
 20
23.849222
 30
0.0
 10
53.191278
 20
23.849995
 30
0.0
 10
53.192807
 20
23.850610
 30
0.0
  0
LWPOLYLINE
  5
11d
100
AcDbEntity
  8
leaves
 62
7
100
AcDbPolyline
 90
33
 70
0
 10
62.729244
 20
34.281131
 30
0.0
 10
62.700299
 20
34.284152
 30
0.0
 10
62.671449
 20
34.287142
 30
0.0
 10
62.642662
 20
34.290068
 30
0.0
 10
62.613906
 20
34.292900
 30
0.0
 10
62.629038
 20
34.293909
 30
0.0
 10
62.644170
 20
34.294918
 30
0.0
 10
62.659302
 20
34.295927
 30
0.0
 10
62.674433
 20
34.296935
 30
0.0
 10
62.549265
 20
34.346665
 30
0.0
 10
62.252384
 20
34.433751
 30
0.0
 10
61.901722
 20
34.465039
 30
0.0
 10
61.615212
 20
34.347374
 30
0.0
 10
61.528614
 20
34.384542
 30
0.0
 10
61.317117
 20
34.440939
 30
0.0
 10
61.053163
 20
34.433909
 30
0.0
 10
60.809195
 20
34.280795
 30
0.0
 10
60.722214
 20
34.296436
 30
0.0
 10
60.516859
 20
34.310092
 30
0.0
 10
60.276511
 20
34.271858
 30
0.0
 10
60.084553
 20
34.131831
 30
0.0
 10
59.069750
 20
33.702553
 30
0.0
 10
58.347431
 20
33.078074
 30
0.0
 10
57.929511
 20
32.295596
 30
0.0
 10
57.827908
 20
31.392315
 30
0.0
 10
57.891866
 20
30.851761
 30
0.0
 10
58.000115
 20
30.226626
 30
0.0
 10
58.113472
 20
29.658928
 30
0.0
 10
58.192751
 20
29.290686
 30
0.0
 10
58.586034
 20
30.761538
 30
0.0
 10
59.514634
 20
32.240491
 30
0.0
 10
60.916415
 20
33.492153
 30
0.0
 10
62.729244
 20
34.281131
 30
0.0
  0
LWPOLYLINE
  5
11e
100
AcDbEntity
  8
leaves
 62
7
100
AcDbPolyline
 90
61
 70
0
 10
62.800728
 20
34.472790
 30
0.0
 10
62.782822
 20
34.474803
 30
0.0
 10
62.764916
 20
34.476784
 30
0.0
 10
62.747010
 20
34.478701
 30
0.0
 10
62.729104
 20
34.480524
 30
0.0
 10
60.916323
 20
33.691594
 30
0.0
 10
59.514620
 20
32.440011
 30
0.0
 10
58.586036
 20
30.961073
 30
0.0
 10
58.192611
 20
29.490080
 30
0.0
 10
58.196387
 20
29.473320
 30
0.0
 10
58.199616
 20
29.458891
 30
0.0
 10
58.202306
 20
29.446860
 30
0.0
 10
58.204391
 20
29.437287
 30
0.0
 10
58.202709
 20
29.437203
 30
0.0
 10
58.201028
 20
29.437118
 30
0.0
 10
58.199347
 20
29.437034
 30
0.0
 10
58.197665
 20
29.436950
 30
0.0
 10
58.191949
 20
29.283447
 30
0.0
 10
58.186232
 20
29.129944
 30
0.0
 10
58.180516
 20
28.976441
 30
0.0
 10
58.174800
 20
28.822938
 30
0.0
 10
58.320148
 20
28.962318
 30
0.0
 10
58.465497
 20
29.101698
 30
0.0
 10
58.610846
 20
29.241078
 30
0.0
 10
58.756194
 20
29.380459
 30
0.0
 10
59.116855
 20
29.356312
 30
0.0
 10
59.508157
 20
29.334811
 30
0.0
 10
59.895046
 20
29.320500
 30
0.0
 10
60.242456
 20
29.317914
 30
0.0
 10
60.431866
 20
29.310548
 30
0.0
 10
60.763324
 20
29.319259
 30
0.0
 10
61.089739
 20
29.376644
 30
0.0
 10
61.264016
 20
29.515299
 30
0.0
 10
61.296308
 20
29.529422
 30
0.0
 10
61.328158
 20
29.544049
 30
0.0
 10
61.359630
 20
29.559181
 30
0.0
 10
61.390787
 20
29.574817
 30
0.0
 10
61.543370
 20
29.610072
 30
0.0
 10
61.701281
 20
29.671492
 30
0.0
 10
61.820291
 20
29.765193
 30
0.0
 10
61.856172
 20
29.897291
 30
0.0
 10
61.869785
 20
29.909908
 30
0.0
 10
61.883367
 20
29.922554
 30
0.0
 10
61.896885
 20
29.935265
 30
0.0
 10
61.910310
 20
29.948070
 30
0.0
 10
62.054003
 20
30.017103
 30
0.0
 10
62.215256
 20
30.130617
 30
0.0
 10
62.327520
 20
30.286690
 30
0.0
 10
62.324248
 20
30.483397
 30
0.0
 10
62.326067
 20
30.486491
 30
0.0
 10
62.327947
 20
30.489618
 30
0.0
 10
62.329826
 20
30.492745
 30
0.0
 10
62.331646
 20
30.495839
 30
0.0
 10
62.428326
 20
30.578937
 30
0.0
 10
62.564380
 20
30.735424
 30
0.0
 10
62.657876
 20
30.939577
 30
0.0
 10
62.626881
 20
31.165667
 30
0.0
 10
62.817278
 20
31.976906
 30
0.0
 10
62.895133
 20
32.830830
 30
0.0
 10
62.882324
 20
33.678953
 30
0.0
 10
62.800728
 20
34.472790
 30
0.0
  0
LWPOLYLINE
  5
11f
100
AcDbEntity
  8
leaves
 62
7
100
AcDbPolyline
 90
33
 70
0
 10
54.225881
 20
17.417489
 30
0.0
 10
54.224562
 20
17.446487
 30
0.0
 10
54.223148
 20
17.475452
 30
0.0
 10
54.221672
 20
17.504355
 30
0.0
 10
54.220164
 20
17.533163
 30
0.0
 10
54.223443
 20
17.518368
 30
0.0
 10
54.226721
 20
17.503572
 30
0.0
 10
54.230000
 20
17.488777
 30
0.0
 10
54.233278
 20
17.473981
 30
0.0
 10
54.263363
 20
17.605275
 30
0.0
 10
54.304229
 20
17.912003
 30
0.0
 10
54.281794
 20
18.263432
 30
0.0
 10
54.121976
 20
18.528831
 30
0.0
 10
54.145567
 20
18.620042
 30
0.0
 10
54.169221
 20
18.837602
 30
0.0
 10
54.122260
 20
19.097406
 30
0.0
 10
53.934006
 20
19.315345
 30
0.0
 10
53.936224
 20
19.403682
 30
0.0
 10
53.918454
 20
19.608690
 30
0.0
 10
53.844067
 20
19.840369
 30
0.0
 10
53.676431
 20
20.008714
 30
0.0
 10
53.097973
 20
20.946477
 30
0.0
 10
52.370941
 20
21.565559
 30
0.0
 10
51.534014
 20
21.859751
 30
0.0
 10
50.625874
 20
21.822841
 30
0.0
 10
50.101317
 20
21.677408
 30
0.0
 10
49.499905
 20
21.475484
 30
0.0
 10
48.955993
 20
21.277342
 30
0.0
 10
48.603938
 20
21.143258
 30
0.0
 10
50.117568
 20
20.977797
 30
0.0
 10
51.720444
 20
20.284616
 30
0.0
 10
53.170553
 20
19.089315
 30
0.0
 10
54.225881
 20
17.417489
 30
0.0
  0
LWPOLYLINE
  5
120
100
AcDbEntity
  8
leaves
 62
7
100
AcDbPolyline
 90
61
 70
0
 10
54.228940
 20
17.345630
 30
0.0
 10
54.228183
 20
17.363730
 30
0.0
 10
54.227427
 20
17.381736
 30
0.0
 10
54.226670
 20
17.399679
 30
0.0
 10
54.225914
 20
17.417590
 30
0.0
 10
53.170586
 20
19.089410
 30
0.0
 10
51.720477
 20
20.284675
 30
0.0
 10
50.117601
 20
20.977755
 30
0.0
 10
48.603971
 20
21.143022
 30
0.0
 10
48.587955
 20
21.136855
 30
0.0
 10
48.574212
 20
21.131505
 30
0.0
 10
48.562739
 20
21.127040
 30
0.0
 10
48.553535
 20
21.123519
 30
0.0
 10
48.553199
 20
21.125133
 30
0.0
 10
48.552863
 20
21.126713
 30
0.0
 10
48.552526
 20
21.128294
 30
0.0
 10
48.552190
 20
21.129874
 30
0.0
 10
48.399528
 20
21.112221
 30
0.0
 10
48.246866
 20
21.094567
 30
0.0
 10
48.094203
 20
21.076913
 30
0.0
 10
47.941541
 20
21.059260
 30
0.0
 10
48.101433
 20
20.936861
 30
0.0
 10
48.261325
 20
20.814462
 30
0.0
 10
48.421217
 20
20.692063
 30
0.0
 10
48.581109
 20
20.569664
 30
0.0
 10
48.612045
 20
20.209355
 30
0.0
 10
48.650294
 20
19.819256
 30
0.0
 10
48.694975
 20
19.434642
 30
0.0
 10
48.745200
 20
19.090823
 30
0.0
 10
48.766705
 20
18.902591
 30
0.0
 10
48.825693
 20
18.576344
 30
0.0
 10
48.932030
 20
18.262455
 30
0.0
 10
49.095584
 20
18.111296
 30
0.0
 10
49.114442
 20
18.081531
 30
0.0
 10
49.133709
 20
18.052240
 30
0.0
 10
49.153418
 20
18.023390
 30
0.0
 10
49.173597
 20
17.994949
 30
0.0
 10
49.231602
 20
17.849412
 30
0.0
 10
49.316339
 20
17.702739
 30
0.0
 10
49.427053
 20
17.599444
 30
0.0
 10
49.562986
 20
17.584039
 30
0.0
 10
49.577426
 20
17.572448
 30
0.0
 10
49.591989
 20
17.560921
 30
0.0
 10
49.606680
 20
17.549520
 30
0.0
 10
49.621496
 20
17.538307
 30
0.0
 10
49.711556
 20
17.406598
 30
0.0
 10
49.848178
 20
17.264423
 30
0.0
 10
50.019413
 20
17.177226
 30
0.0
 10
50.213315
 20
17.210453
 30
0.0
 10
50.216792
 20
17.209140
 30
0.0
 10
50.220208
 20
17.207763
 30
0.0
 10
50.223624
 20
17.206386
 30
0.0
 10
50.227101
 20
17.205073
 30
0.0
 10
50.323876
 20
17.122143
 30
0.0
 10
50.499178
 20
17.011471
 30
0.0
 10
50.715147
 20
16.950103
 30
0.0
 10
50.933921
 20
17.015086
 30
0.0
 10
51.764596
 20
16.950030
 30
0.0
 10
52.620395
 20
17.002812
 30
0.0
 10
53.456712
 20
17.144367
 30
0.0
 10
54.228940
 20
17.345630
 30
0.0
  0
LWPOLYLINE
  5
121
100
AcDbEntity
  8
leaves
 62
7
100
AcDbPolyline
 90
33
 70
0
 10
53.481413
 20
36.045809
 30
0.0
 10
53.501588
 20
36.046314
 30
0.0
 10
53.521764
 20
36.046818
 30
0.0
 10
53.541940
 20
36.047323
 30
0.0
 10
53.562115
 20
36.047827
 30
0.0
 10
53.551691
 20
36.049340
 30
0.0
 10
53.541267
 20
36.050853
 30
0.0
 10
53.530843
 20
36.052366
 30
0.0
 10
53.520419
 20
36.053880
 30
0.0
 10
53.610143
 20
36.082152
 30
0.0
 10
53.821078
 20
36.127226
 30
0.0
 10
54.065871
 20
36.129491
 30
0.0
 10
54.257166
 20
36.029333
 30
0.0
 10
54.319348
 20
36.050859
 30
0.0
 10
54.469137
 20
36.078973
 30
0.0
 10
54.651395
 20
36.058981
 30
0.0
 10
54.810988
 20
35.936188
 30
0.0
 10
54.872213
 20
35.942351
 30
0.0
 10
55.015308
 20
35.940350
 30
0.0
 10
55.179398
 20
35.899447
 30
0.0
 10
55.303610
 20
35.788906
 30
0.0
 10
55.980192
 20
35.425619
 30
0.0
 10
56.442314
 20
34.940016
 30
0.0
 10
56.683954
 20
34.359336
 30
0.0
 10
56.699091
 20
33.710815
 30
0.0
 10
56.621783
 20
33.329811
 30
0.0
 10
56.508600
 20
32.891180
 30
0.0
 10
56.395416
 20
32.493656
 30
0.0
 10
56.318108
 20
32.235976
 30
0.0
 10
56.135566
 20
33.305216
 30
0.0
 10
55.582832
 20
34.410616
 30
0.0
 10
54.688562
 20
35.381153
 30
0.0
 10
53.481413
 20
36.045809
 30
0.0
  0
SPLINE
  5
122
100
AcDbEntity
  8
leaves
 62
7
100
AcDbSpline
 70
0
 71
3
 72
10
 73
6
 74
4
 40
0.000000
 40
0.000000
 40
0.000000
 40
0.000000
 40
0.890387
 40
1.927692
 40
3.043950
 40
3.043950
 40
3.043950
 40
3.043950
 10
54.335089
 20
54.124352
 30
0.0
 10
54.070095
 20
53.985877
 30
0.0
 10
53.496381
 20
53.686079
 30
0.0
 10
52.428587
 20
53.664941
 30
0.0
 10
51.780732
 20
53.990550
 30
0.0
 10
51.444929
 20
54.159323
 30
0.0
 11
54.335089
 21
54.124352
 31
0.0
 11
53.518237
 21
53.770033
 31
0.0
 11
52.481247
 21
53.744502
 31
0.0
 11
51.444929
 21
54.159323
 31
0.0
  0
LWPOLYLINE
  5
123
100
AcDbEntity
  8
leaves
 62
7
100
AcDbPolyline
 90
61
 70
0
 10
53.496955
 20
36.178249
 30
0.0
 10
53.509512
 20
36.178701
 30
0.0
 10
53.522006
 20
36.179090
 30
0.0
 10
53.534500
 20
36.179478
 30
0.0
 10
53.547058
 20
36.179930
 30
0.0
 10
54.754207
 20
35.515085
 30
0.0
 10
55.648477
 20
34.544484
 30
0.0
 10
56.201211
 20
33.439148
 30
0.0
 10
56.383753
 20
32.370097
 30
0.0
 10
56.380170
 20
32.358311
 30
0.0
 10
56.377029
 20
32.348196
 30
0.0
 10
56.374393
 20
32.339783
 30
0.0
 10
56.372321
 20
32.333105
 30
0.0
 10
56.373498
 20
32.332936
 30
0.0
 10
56.374675
 20
32.332768
 30
0.0
 10
56.375852
 20
32.332600
 30
0.0
 10
56.377029
 20
32.332432
 30
0.0
 10
56.371649
 20
32.222895
 30
0.0
 10
56.366269
 20
32.113358
 30
0.0
 10
56.360888
 20
32.003821
 30
0.0
 10
56.355508
 20
31.894284
 30
0.0
 10
56.263373
 20
32.001720
 30
0.0
 10
56.171237
 20
32.109155
 30
0.0
 10
56.079102
 20
32.216590
 30
0.0
 10
55.986967
 20
32.324025
 30
0.0
 10
55.735712
 20
32.327445
 30
0.0
 10
55.463367
 20
32.334490
 30
0.0
 10
55.194489
 20
32.346390
 30
0.0
 10
54.953636
 20
32.364380
 30
0.0
 10
54.822095
 20
32.369802
 30
0.0
 10
54.593081
 20
32.394896
 30
0.0
 10
54.370497
 20
32.454414
 30
0.0
 10
54.258249
 20
32.563110
 30
0.0
 10
54.236886
 20
32.574900
 30
0.0
 10
54.215712
 20
32.587069
 30
0.0
 10
54.194790
 20
32.599615
 30
0.0
 10
54.174184
 20
32.612541
 30
0.0
 10
54.070579
 20
32.646329
 30
0.0
 10
53.964988
 20
32.699002
 30
0.0
 10
53.888336
 20
32.772417
 30
0.0
 10
53.871549
 20
32.868435
 30
0.0
 10
53.862975
 20
32.878271
 30
0.0
 10
53.854400
 20
32.888106
 30
0.0
 10
53.845825
 20
32.897942
 30
0.0
 10
53.837251
 20
32.907777
 30
0.0
 10
53.741879
 20
32.965120
 30
0.0
 10
53.637175
 20
33.055060
 30
0.0
 10
53.569041
 20
33.172488
 30
0.0
 10
53.583374
 20
33.312299
 30
0.0
 10
53.582171
 20
33.314576
 30
0.0
 10
53.581062
 20
33.316882
 30
0.0
 10
53.580017
 20
33.319253
 30
0.0
 10
53.579002
 20
33.321714
 30
0.0
 10
53.517004
 20
33.386355
 30
0.0
 10
53.432309
 20
33.505439
 30
0.0
 10
53.380020
 20
33.655984
 30
0.0
 10
53.415243
 20
33.815009
 30
0.0
 10
53.332965
 20
34.403060
 30
0.0
 10
53.331262
 20
35.015165
 30
0.0
 10
53.391978
 20
35.618002
 30
0.0
 10
53.496955
 20
36.178249
 30
0.0
  0
SPLINE
  5
124
100
AcDbEntity
  8
leaves
 62
7
100
AcDbSpline
 70
0
 71
3
 72
10
 73
6
 74
4
 40
0.000000
 40
0.000000
 40
0.000000
 40
0.000000
 40
0.027748
 40
0.055403
 40
0.082871
 40
0.082871
 40
0.082871
 40
0.082871
 10
46.286748
 20
17.490077
 30
0.0
 10
46.289436
 20
17.498927
 30
0.0
 10
46.294803
 20
17.516598
 30
0.0
 10
46.302793
 20
17.543040
 30
0.0
 10
46.308019
 20
17.560656
 30
0.0
 10
46.310622
 20
17.569435
 30
0.0
 11
46.286748
 21
17.490077
 31
0.0
 11
46.294806
 21
17.516629
 31
0.0
 11
46.302789
 21
17.543107
 31
0.0
 11
46.310622
 21
17.569435
 31
0.0
  0
SPLINE
  5
125
100
AcDbEntity
  8
leaves
 62
7
100
AcDbSpline
 70
0
 71
3
 72
16
 73
12
 74
10
 40
0.000000
 40
0.000000
 40
0.000000
 40
0.000000
 40
0.160917
 40
0.486180
 40
0.785735
 40
0.898422
 40
1.133234
 40
1.399722
 40
1.505575
 40
1.725278
 40
1.950421
 40
1.950421
 40
1.950421
 40
1.950421
 10
46.305242
 20
17.526393
 30
0.0
 10
46.332669
 20
17.571787
 30
0.0
 10
46.415535
 20
17.708935
 30
0.0
 10
46.576511
 20
17.945356
 30
0.0
 10
46.429019
 20
18.216212
 30
0.0
 10
46.574540
 20
18.387342
 30
0.0
 10
46.670795
 20
18.592138
 30
0.0
 10
46.507117
 20
18.787613
 30
0.0
 10
46.604734
 20
18.970373
 30
0.0
 10
46.640656
 20
19.159064
 30
0.0
 10
46.574016
 20
19.295842
 30
0.0
 10
46.540288
 20
19.365067
 30
0.0
 11
46.305242
 21
17.526393
 31
0.0
 11
46.389357
 21
17.663575
 31
0.0
 11
46.513226
 21
17.964329
 31
0.0
 11
46.484133
 21
18.262468
 31
0.0
 11
46.544585
 21
18.357567
 31
0.0
 11
46.618936
 21
18.580296
 31
0.0
 11
46.546677
 21
18.836801
 31
0.0
 11
46.582533
 21
18.936397
 31
0.0
 11
46.616968
 21
19.153384
 31
0.0
 11
46.540288
 21
19.365067
 31
0.0
  0
SPLINE
  5
126
100
AcDbEntity
  8
leaves
 62
7
100
AcDbSpline
 70
0
 71
3
 72
13
 73
9
 74
7
 40
0.000000
 40
0.000000
 40
0.000000
 40
0.000000
 40
1.020720
 40
1.886384
 40
2.741623
 40
3.279238
 40
3.869869
 40
4.265977
 40
4.265977
 40
4.265977
 40
4.265977
 10
46.540288
 20
19.365067
 30
0.0
 10
46.485296
 20
19.705601
 30
0.0
 10
46.383665
 20
20.334939
 30
0.0
 10
45.771546
 20
21.080004
 30
0.0
 10
45.031710
 20
21.338635
 30
0.0
 10
44.370227
 20
21.353248
 30
0.0
 10
43.862161
 20
21.358152
 30
0.0
 10
43.533307
 20
21.350665
 30
0.0
 10
43.401295
 20
21.347660
 30
0.0
 11
46.540288
 21
19.365067
 31
0.0
 11
46.281754
 21
20.352502
 31
0.0
 11
45.723798
 21
21.014363
 31
0.0
 11
44.924556
 21
21.318741
 31
0.0
 11
44.387958
 21
21.351794
 31
0.0
 11
43.797335
 21
21.354958
 31
0.0
 11
43.401295
 21
21.347660
 31
0.0
  0
LWPOLYLINE
  5
127
100
AcDbEntity
  8
leaves
 62
7
100
AcDbPolyline
 90
2
 70
0
 10
46.310622
 20
17.569435
 30
0.0
 10
46.305242
 20
17.526393
 30
0.0
  0
LWPOLYLINE
  5
128
100
AcDbEntity
  8
leaves
 62
7
100
AcDbPolyline
 90
61
 70
0
 10
46.271513
 20
17.441015
 30
0.0
 10
46.275296
 20
17.453321
 30
0.0
 10
46.279079
 20
17.465563
 30
0.0
 10
46.282862
 20
17.477805
 30
0.0
 10
46.286645
 20
17.490110
 30
0.0
 10
45.978977
 20
18.868263
 30
0.0
 10
45.291061
 20
20.020892
 30
0.0
 10
44.379574
 20
20.872524
 30
0.0
 10
43.401192
 20
21.347692
 30
0.0
 10
43.388955
 20
21.347393
 30
0.0
 10
43.378453
 20
21.347062
 30
0.0
 10
43.369652
 20
21.346794
 30
0.0
 10
43.362522
 20
21.346683
 30
0.0
 10
43.362690
 20
21.347860
 30
0.0
 10
43.362858
 20
21.349037
 30
0.0
 10
43.363027
 20
21.350214
 30
0.0
 10
43.363195
 20
21.351391
 30
0.0
 10
43.256348
 20
21.376190
 30
0.0
 10
43.149501
 20
21.400990
 30
0.0
 10
43.042654
 20
21.425789
 30
0.0
 10
42.935807
 20
21.450588
 30
0.0
 10
43.013820
 20
21.329786
 30
0.0
 10
43.091832
 20
21.208985
 30
0.0
 10
43.169845
 20
21.088183
 30
0.0
 10
43.247857
 20
20.967381
 30
0.0
 10
43.182223
 20
20.717676
 30
0.0
 10
43.114194
 20
20.446093
 30
0.0
 10
43.051712
 20
20.176654
 30
0.0
 10
43.002723
 20
19.933380
 30
0.0
 10
42.971892
 20
19.801613
 30
0.0
 10
42.933117
 20
19.567990
 30
0.0
 10
42.929145
 20
19.331279
 30
0.0
 10
43.002723
 20
19.190244
 30
0.0
 10
43.008403
 20
19.165655
 30
0.0
 10
43.014366
 20
19.141318
 30
0.0
 10
43.020645
 20
19.117233
 30
0.0
 10
43.027270
 20
19.093401
 30
0.0
 10
43.031384
 20
18.981599
 30
0.0
 10
43.053120
 20
18.862516
 30
0.0
 10
43.102787
 20
18.766319
 30
0.0
 10
43.190693
 20
18.723178
 30
0.0
 10
43.197565
 20
18.711887
 30
0.0
 10
43.204564
 20
18.700690
 30
0.0
 10
43.211688
 20
18.689557
 30
0.0
 10
43.218939
 20
18.678455
 30
0.0
 10
43.247757
 20
18.568235
 30
0.0
 10
43.305484
 20
18.439794
 30
0.0
 10
43.399716
 20
18.339977
 30
0.0
 10
43.538050
 20
18.315630
 30
0.0
 10
43.540068
 20
18.313864
 30
0.0
 10
43.542085
 20
18.312099
 30
0.0
 10
43.544103
 20
18.310333
 30
0.0
 10
43.546121
 20
18.308568
 30
0.0
 10
43.591232
 20
18.229584
 30
0.0
 10
43.682558
 20
18.112990
 30
0.0
 10
43.813101
 20
18.019788
 30
0.0
 10
43.975862
 20
18.010977
 30
0.0
 10
44.518975
 20
17.767530
 30
0.0
 10
45.107295
 20
17.597251
 30
0.0
 10
45.703811
 20
17.491344
 30
0.0
 10
46.271513
 20
17.441015
 30
0.0
  0
LWPOLYLINE
  5
129
100
AcDbEntity
  8
leaves
 62
7
100
AcDbPolyline
 90
33
 70
0
 10
51.367281
 20
25.778122
 30
0.0
 10
51.354976
 20
25.780187
 30
0.0
 10
51.342734
 20
25.782284
 30
0.0
 10
51.330492
 20
25.784317
 30
0.0
 10
51.318187
 20
25.786193
 30
0.0
 10
51.324744
 20
25.786277
 30
0.0
 10
51.331301
 20
25.786361
 30
0.0
 10
51.337858
 20
25.786445
 30
0.0
 10
51.344415
 20
25.786529
 30
0.0
 10
51.292195
 20
25.811197
 30
0.0
 10
51.167500
 20
25.856513
 30
0.0
 10
51.018279
 20
25.879447
 30
0.0
 10
50.892481
 20
25.836968
 30
0.0
 10
50.856475
 20
25.855215
 30
0.0
 10
50.767602
 20
25.885095
 30
0.0
 10
50.654581
 20
25.889314
 30
0.0
 10
50.546132
 20
25.830579
 30
0.0
 10
50.509354
 20
25.839585
 30
0.0
 10
50.421884
 20
25.850923
 30
0.0
 10
50.318021
 20
25.841077
 30
0.0
 10
50.232065
 20
25.786529
 30
0.0
 10
49.786314
 20
25.630488
 30
0.0
 10
49.460388
 20
25.383058
 30
0.0
 10
49.260371
 20
25.059780
 30
0.0
 10
49.192347
 20
24.676196
 30
0.0
 10
49.204951
 20
24.443246
 30
0.0
 10
49.234169
 20
24.172940
 30
0.0
 10
49.267107
 20
23.927034
 30
0.0
 10
49.290871
 20
23.767283
 30
0.0
 10
49.499174
 20
24.385767
 30
0.0
 10
49.936660
 20
24.992996
 30
0.0
 10
50.570353
 20
25.490078
 30
0.0
 10
51.367281
 20
25.778122
 30
0.0
  0
SPLINE
  5
12a
100
AcDbEntity
  8
leaves
 62
7
100
AcDbSpline
 70
0
 71
3
 72
10
 73
6
 74
4
 40
0.000000
 40
0.000000
 40
0.000000
 40
0.000000
 40
1.484134
 40
3.212872
 40
5.073347
 40
5.073347
 40
5.073347
 40
5.073347
 10
43.401295
 20
21.347660
 30
0.0
 10
43.853281
 20
21.137683
 30
0.0
 10
44.831746
 20
20.683123
 30
0.0
 10
45.942776
 20
19.292382
 30
0.0
 10
46.169319
 20
18.105368
 30
0.0
 10
46.286748
 20
17.490077
 30
0.0
 11
43.401295
 21
21.347660
 31
0.0
 11
44.698601
 21
20.626791
 31
0.0
 11
45.784138
 21
19.281375
 31
0.0
 11
46.286748
 21
17.490077
 31
0.0
  0
LWPOLYLINE
  5
12b
100
AcDbEntity
  8
leaves
 62
7
100
AcDbPolyline
 90
61
 70
0
 10
51.397614
 20
25.772808
 30
0.0
 10
51.390048
 20
25.774122
 30
0.0
 10
51.382482
 20
25.775498
 30
0.0
 10
51.374916
 20
25.776875
 30
0.0
 10
51.367351
 20
25.778188
 30
0.0
 10
50.570423
 20
25.490144
 30
0.0
 10
49.936729
 20
24.993062
 30
0.0
 10
49.499244
 20
24.385833
 30
0.0
 10
49.290941
 20
23.767349
 30
0.0
 10
49.291939
 20
23.760088
 30
0.0
 10
49.292874
 20
23.753899
 30
0.0
 10
49.293685
 20
23.748719
 30
0.0
 10
49.294303
 20
23.744484
 30
0.0
 10
49.293631
 20
23.744484
 30
0.0
 10
49.292958
 20
23.744484
 30
0.0
 10
49.292286
 20
23.744484
 30
0.0
 10
49.291613
 20
23.744484
 30
0.0
 10
49.284972
 20
23.678997
 30
0.0
 10
49.278331
 20
23.613510
 30
0.0
 10
49.271690
 20
23.548023
 30
0.0
 10
49.265049
 20
23.482537
 30
0.0
 10
49.330956
 20
23.538188
 30
0.0
 10
49.396863
 20
23.593839
 30
0.0
 10
49.462770
 20
23.649490
 30
0.0
 10
49.528677
 20
23.705141
 30
0.0
 10
49.682385
 20
23.684939
 30
0.0
 10
49.849176
 20
23.665084
 30
0.0
 10
50.014264
 20
23.648445
 30
0.0
 10
50.162865
 20
23.637889
 30
0.0
 10
50.243636
 20
23.629598
 30
0.0
 10
50.385595
 20
23.624270
 30
0.0
 10
50.526736
 20
23.639875
 30
0.0
 10
50.605048
 20
23.694381
 30
0.0
 10
50.619302
 20
23.699545
 30
0.0
 10
50.633335
 20
23.704931
 30
0.0
 10
50.647180
 20
23.710506
 30
0.0
 10
50.660867
 20
23.716238
 30
0.0
 10
50.727100
 20
23.727277
 30
0.0
 10
50.796296
 20
23.749317
 30
0.0
 10
50.849730
 20
23.786175
 30
0.0
 10
50.868676
 20
23.841663
 30
0.0
 10
50.874923
 20
23.846707
 30
0.0
 10
50.881076
 20
23.851751
 30
0.0
 10
50.887165
 20
23.856795
 30
0.0
 10
50.893223
 20
23.861839
 30
0.0
 10
50.956697
 20
23.887415
 30
0.0
 10
51.028778
 20
23.931528
 30
0.0
 10
51.080998
 20
23.995187
 30
0.0
 10
51.084892
 20
24.079399
 30
0.0
 10
51.085848
 20
24.080714
 30
0.0
 10
51.086741
 20
24.082089
 30
0.0
 10
51.087634
 20
24.083465
 30
0.0
 10
51.088590
 20
24.084779
 30
0.0
 10
51.132126
 20
24.117691
 30
0.0
 10
51.194513
 20
24.180866
 30
0.0
 10
51.240002
 20
24.265604
 30
0.0
 10
51.232846
 20
24.363203
 30
0.0
 10
51.336520
 20
24.704839
 30
0.0
 10
51.393159
 20
25.067880
 30
0.0
 10
51.410833
 20
25.430983
 30
0.0
 10
51.397614
 20
25.772808
 30
0.0
  0
SPLINE
  5
12c
100
AcDbEntity
  8
leaves
 62
7
100
AcDbSpline
 70
0
 71
3
 72
10
 73
6
 74
4
 40
0.000000
 40
0.000000
 40
0.000000
 40
0.000000
 40
0.016639
 40
0.033222
 40
0.049700
 40
0.049700
 40
0.049700
 40
0.049700
 10
61.305844
 20
26.176857
 30
0.0
 10
61.302014
 20
26.180869
 30
0.0
 10
61.294367
 20
26.188879
 30
0.0
 10
61.282746
 20
26.200687
 30
0.0
 10
61.275046
 20
26.208571
 30
0.0
 10
61.271209
 20
26.212501
 30
0.0
 11
61.305844
 21
26.176857
 31
0.0
 11
61.294324
 21
26.188863
 31
0.0
 11
61.282729
 21
26.200719
 31
0.0
 11
61.271209
 21
26.212501
 31
0.0
  0
SPLINE
  5
12d
100
AcDbEntity
  8
leaves
 62
7
100
AcDbSpline
 70
0
 71
3
 72
16
 73
12
 74
10
 40
0.000000
 40
0.000000
 40
0.000000
 40
0.000000
 40
0.096524
 40
0.291602
 40
0.471298
 40
0.538962
 40
0.679928
 40
0.839847
 40
0.903382
 40
1.035235
 40
1.170264
 40
1.170264
 40
1.170264
 40
1.170264
 10
61.292057
 20
26.197033
 30
0.0
 10
61.276222
 20
26.224624
 30
0.0
 10
61.228385
 20
26.307976
 30
0.0
 10
61.151132
 20
26.461216
 30
0.0
 10
60.966064
 20
26.462350
 30
0.0
 10
60.918491
 20
26.588505
 30
0.0
 10
60.838910
 20
26.698595
 30
0.0
 10
60.688664
 20
26.669374
 30
0.0
 10
60.621092
 20
26.773771
 30
0.0
 10
60.532517
 20
26.847489
 30
0.0
 10
60.441367
 20
26.852316
 30
0.0
 10
60.395250
 20
26.854759
 30
0.0
 11
61.292057
 21
26.197033
 31
0.0
 11
61.244557
 21
26.281061
 31
0.0
 11
61.122781
 21
26.433462
 31
0.0
 11
60.957814
 21
26.504711
 31
0.0
 11
60.925421
 21
26.564117
 31
0.0
 11
60.830035
 21
26.667910
 31
0.0
 11
60.674346
 21
26.704450
 31
0.0
 11
60.632475
 21
26.752237
 31
0.0
 11
60.528583
 21
26.833425
 31
0.0
 11
60.395250
 21
26.854759
 31
0.0
  0
SPLINE
  5
12e
100
AcDbEntity
  8
leaves
 62
7
100
AcDbSpline
 70
0
 71
3
 72
13
 73
9
 74
7
 40
0.000000
 40
0.000000
 40
0.000000
 40
0.000000
 40
0.612485
 40
1.131791
 40
1.644869
 40
1.967576
 40
2.321912
 40
2.559561
 40
2.559561
 40
2.559561
 40
2.559561
 10
60.395250
 20
26.854759
 30
0.0
 10
60.200483
 20
26.924832
 30
0.0
 10
59.840582
 20
27.054319
 30
0.0
 10
59.271676
 20
26.949451
 30
0.0
 10
58.920845
 20
26.636325
 30
0.0
 10
58.721078
 20
26.293238
 30
0.0
 10
58.570880
 20
26.027927
 30
0.0
 10
58.479094
 20
25.853228
 30
0.0
 10
58.442248
 20
25.783096
 30
0.0
 11
60.395250
 21
26.854759
 31
0.0
 11
59.801712
 21
27.005927
 31
0.0
 11
59.292240
 21
26.905347
 31
0.0
 11
58.900235
 21
26.574317
 31
0.0
 11
58.726948
 21
26.302083
 31
0.0
 11
58.553662
 21
25.993010
 31
0.0
 11
58.442248
 21
25.783096
 31
0.0
  0
LWPOLYLINE
  5
12f
100
AcDbEntity
  8
leaves
 62
7
100
AcDbPolyline
 90
2
 70
0
 10
61.271209
 20
26.212501
 30
0.0
 10
61.292057
 20
26.197033
 30
0.0
  0
LWPOLYLINE
  5
130
100
AcDbEntity
  8
leaves
 62
7
100
AcDbPolyline
 90
61
 70
0
 10
61.327160
 20
26.154598
 30
0.0
 10
61.321864
 20
26.160147
 30
0.0
 10
61.316568
 20
26.165695
 30
0.0
 10
61.311272
 20
26.171243
 30
0.0
 10
61.305975
 20
26.176792
 30
0.0
 10
60.492965
 20
26.415726
 30
0.0
 10
59.687931
 20
26.389476
 30
0.0
 10
58.976020
 20
26.158444
 30
0.0
 10
58.442379
 20
25.783030
 30
0.0
 10
58.439044
 20
25.776415
 30
0.0
 10
58.436118
 20
25.770715
 30
0.0
 10
58.433633
 20
25.765960
 30
0.0
 10
58.431619
 20
25.762182
 30
0.0
 10
58.431031
 20
25.762602
 30
0.0
 10
58.430442
 20
25.763023
 30
0.0
 10
58.429854
 20
25.763443
 30
0.0
 10
58.429265
 20
25.763863
 30
0.0
 10
58.385215
 20
25.715022
 30
0.0
 10
58.341165
 20
25.666180
 30
0.0
 10
58.297115
 20
25.617338
 30
0.0
 10
58.253065
 20
25.568496
 30
0.0
 10
58.339147
 20
25.574381
 30
0.0
 10
58.425230
 20
25.580265
 30
0.0
 10
58.511313
 20
25.586150
 30
0.0
 10
58.597396
 20
25.592034
 30
0.0
 10
58.709360
 20
25.484940
 30
0.0
 10
58.832105
 20
25.370312
 30
0.0
 10
58.955356
 20
25.259278
 30
0.0
 10
59.068833
 20
25.162966
 30
0.0
 10
59.129171
 20
25.108381
 30
0.0
 10
59.240578
 20
25.020097
 30
0.0
 10
59.363713
 20
24.949277
 30
0.0
 10
59.459232
 20
24.947086
 30
0.0
 10
59.473659
 20
24.942731
 30
0.0
 10
59.488150
 20
24.938722
 30
0.0
 10
59.502641
 20
24.935028
 30
0.0
 10
59.517069
 20
24.931618
 30
0.0
 10
59.577023
 20
24.901250
 30
0.0
 10
59.645898
 20
24.878069
 30
0.0
 10
59.710802
 20
24.876198
 30
0.0
 10
59.758840
 20
24.909761
 30
0.0
 10
59.766858
 20
24.910077
 30
0.0
 10
59.774812
 20
24.910517
 30
0.0
 10
59.782767
 20
24.911085
 30
0.0
 10
59.790785
 20
24.911778
 30
0.0
 10
59.856965
 20
24.894918
 30
0.0
 10
59.941177
 20
24.887861
 30
0.0
 10
60.020976
 20
24.908231
 30
0.0
 10
60.073916
 20
24.973651
 30
0.0
 10
60.075376
 20
24.974350
 30
0.0
 10
60.076774
 20
24.974956
 30
0.0
 10
60.078173
 20
24.975497
 30
0.0
 10
60.079633
 20
24.976008
 30
0.0
 10
60.134291
 20
24.976711
 30
0.0
 10
60.222081
 20
24.990718
 30
0.0
 10
60.308926
 20
25.032089
 30
0.0
 10
60.360747
 20
25.114880
 30
0.0
 10
60.646468
 20
25.329304
 30
0.0
 10
60.906876
 20
25.588714
 30
0.0
 10
61.135822
 20
25.871136
 30
0.0
 10
61.327160
 20
26.154598
 30
0.0
  0
LWPOLYLINE
  5
131
100
AcDbEntity
  8
leaves
 62
7
100
AcDbPolyline
 90
257
 70
0
 10
4.967639
 20
7.571699
 30
0.0
 10
4.958557
 20
7.639801
 30
0.0
 10
4.931709
 20
7.841266
 30
0.0
 10
4.887693
 20
8.171830
 30
0.0
 10
4.827108
 20
8.627229
 30
0.0
 10
4.789889
 20
8.899288
 30
0.0
 10
4.751334
 20
9.204130
 30
0.0
 10
4.711908
 20
9.541566
 30
0.0
 10
4.672078
 20
9.911406
 30
0.0
 10
4.627246
 20
10.309159
 30
0.0
 10
4.582597
 20
10.734544
 30
0.0
 10
4.539587
 20
11.186782
 30
0.0
 10
4.499671
 20
11.665094
 30
0.0
 10
4.419159
 20
12.701426
 30
0.0
 10
4.353329
 20
13.841412
 30
0.0
 10
4.310674
 20
15.080803
 30
0.0
 10
4.299685
 20
16.415355
 30
0.0
 10
4.327051
 20
17.839665
 30
0.0
 10
4.410399
 20
19.349084
 30
0.0
 10
4.563265
 20
20.936418
 30
0.0
 10
4.799185
 20
22.594472
 30
0.0
 10
5.140031
 20
24.312223
 30
0.0
 10
5.603493
 20
26.078473
 30
0.0
 10
6.214596
 20
27.872468
 30
0.0
 10
6.998366
 20
29.673454
 30
0.0
 10
7.460225
 20
30.567424
 30
0.0
 10
7.970352
 20
31.452288
 30
0.0
 10
8.528643
 20
32.324605
 30
0.0
 10
9.134993
 20
33.180934
 30
0.0
 10
9.789398
 20
34.017697
 30
0.0
 10
10.493224
 20
34.828833
 30
0.0
 10
11.241052
 20
35.614514
 30
0.0
 10
12.027468
 20
36.374909
 30
0.0
 10
13.711268
 20
37.809186
 30
0.0
 10
15.509959
 20
39.135590
 30
0.0
 10
17.386804
 20
40.380984
 30
0.0
 10
19.305067
 20
41.572234
 30
0.0
 10
21.223249
 20
42.757286
 30
0.0
 10
23.100178
 20
43.989476
 30
0.0
 10
24.858084
 20
45.331180
 30
0.0
 10
26.419198
 20
46.844776
 30
0.0
 10
27.089628
 20
47.679608
 30
0.0
 10
27.667509
 20
48.569788
 30
0.0
 10
28.143711
 20
49.510260
 30
0.0
 10
28.509104
 20
50.495975
 30
0.0
 10
28.770050
 20
51.513588
 30
0.0
 10
28.934714
 20
52.551115
 30
0.0
 10
28.985018
 20
53.587815
 30
0.0
 10
28.902879
 20
54.602959
 30
0.0
 10
28.802225
 20
55.092759
 30
0.0
 10
28.653991
 20
55.562308
 30
0.0
 10
28.455981
 20
56.004080
 30
0.0
 10
28.205997
 20
56.410540
 30
0.0
 10
27.901955
 20
56.772368
 30
0.0
 10
27.544653
 20
57.081155
 30
0.0
 10
27.140815
 20
57.334969
 30
0.0
 10
26.697167
 20
57.531876
 30
0.0
 10
26.463648
 20
57.609561
 30
0.0
 10
26.221988
 20
57.674179
 30
0.0
 10
25.977227
 20
57.725687
 30
0.0
 10
25.734410
 20
57.764042
 30
0.0
 10
25.543237
 20
57.768929
 30
0.0
 10
25.347328
 20
57.744244
 30
0.0
 10
25.154243
 20
57.690406
 30
0.0
 10
24.971540
 20
57.607899
 30
0.0
 10
24.637337
 20
57.364311
 30
0.0
 10
24.364553
 20
57.034968
 30
0.0
 10
24.160460
 20
56.645051
 30
0.0
 10
24.032331
 20
56.219739
 30
0.0
 10
23.979156
 20
55.775541
 30
0.0
 10
23.999838
 20
55.327848
 30
0.0
 10
24.091476
 20
54.887442
 30
0.0
 10
24.251165
 20
54.465096
 30
0.0
 10
24.472697
 20
54.067828
 30
0.0
 10
24.749209
 20
53.701468
 30
0.0
 10
25.073694
 20
53.369333
 30
0.0
 10
25.439142
 20
53.074739
 30
0.0
 10
25.835931
 20
52.815087
 30
0.0
 10
26.258362
 20
52.591346
 30
0.0
 10
26.700547
 20
52.400789
 30
0.0
 10
27.156603
 20
52.240700
 30
0.0
 10
27.388821
 20
52.171530
 30
0.0
 10
27.623159
 20
52.109234
 30
0.0
 10
27.859200
 20
52.053307
 30
0.0
 10
28.096525
 20
52.003255
 30
0.0
 10
28.215136
 20
51.979867
 30
0.0
 10
28.335203
 20
51.958588
 30
0.0
 10
28.454109
 20
51.938771
 30
0.0
 10
28.569243
 20
51.919766
 30
0.0
 10
28.693553
 20
51.902360
 30
0.0
 10
28.817614
 20
51.884992
 30
0.0
 10
28.941425
 20
51.867693
 30
0.0
 10
29.064987
 20
51.850494
 30
0.0
 10
30.027928
 20
51.748448
 30
0.0
 10
30.982797
 20
51.692436
 30
0.0
 10
31.924384
 20
51.686276
 30
0.0
 10
32.847474
 20
51.733795
 30
0.0
 10
33.748142
 20
51.837700
 30
0.0
 10
34.621889
 20
51.998297
 30
0.0
 10
35.463394
 20
52.215785
 30
0.0
 10
36.267334
 20
52.490362
 30
0.0
 10
37.743396
 20
53.199442
 30
0.0
 10
39.015007
 20
54.088510
 30
0.0
 10
40.078118
 20
55.104438
 30
0.0
 10
40.928685
 20
56.194107
 30
0.0
 10
41.591551
 20
57.306486
 30
0.0
 10
42.091107
 20
58.399855
 30
0.0
 10
42.452990
 20
59.448091
 30
0.0
 10
42.702829
 20
60.425063
 30
0.0
 10
42.861246
 20
61.317035
 30
0.0
 10
42.946322
 20
62.110361
 30
0.0
 10
42.975739
 20
62.796388
 30
0.0
 10
42.967126
 20
63.366454
 30
0.0
 10
42.952736
 20
63.606453
 30
0.0
 10
42.934843
 20
63.815471
 30
0.0
 10
42.915078
 20
63.993096
 30
0.0
 10
42.895101
 20
64.138893
 30
0.0
 10
42.876411
 20
64.252669
 30
0.0
 10
42.863023
 20
64.334565
 30
0.0
 10
42.854957
 20
64.384080
 30
0.0
 10
42.852305
 20
64.400710
 30
0.0
 10
42.852012
 20
64.402632
 30
0.0
 10
42.851719
 20
64.404554
 30
0.0
 10
42.851426
 20
64.406477
 30
0.0
 10
42.851132
 20
64.408399
 30
0.0
 10
42.854222
 20
64.474835
 30
0.0
 10
42.882765
 20
64.533022
 30
0.0
 10
42.932048
 20
64.576772
 30
0.0
 10
42.997304
 20
64.599894
 30
0.0
 10
43.066249
 20
64.596881
 30
0.0
 10
43.126700
 20
64.570184
 30
0.0
 10
43.172509
 20
64.524023
 30
0.0
 10
43.197533
 20
64.462778
 30
0.0
 10
43.200702
 20
64.445307
 30
0.0
 10
43.210185
 20
64.393320
 30
0.0
 10
43.225893
 20
64.307371
 30
0.0
 10
43.247771
 20
64.188030
 30
0.0
 10
43.271686
 20
64.035697
 30
0.0
 10
43.295938
 20
63.850664
 30
0.0
 10
43.318801
 20
63.633441
 30
0.0
 10
43.338582
 20
63.384546
 30
0.0
 10
43.358804
 20
62.794772
 30
0.0
 10
43.342010
 20
62.086478
 30
0.0
 10
43.270166
 20
61.267574
 30
0.0
 10
43.124863
 20
60.345985
 30
0.0
 10
42.886483
 20
59.333682
 30
0.0
 10
42.533248
 20
58.243198
 30
0.0
 10
42.036459
 20
57.099257
 30
0.0
 10
41.367414
 20
55.926577
 30
0.0
 10
40.958934
 20
55.342295
 30
0.0
 10
40.495582
 20
54.767499
 30
0.0
 10
39.975443
 20
54.209254
 30
0.0
 10
39.396603
 20
53.674644
 30
0.0
 10
38.759017
 20
53.171786
 30
0.0
 10
38.063288
 20
52.708566
 30
0.0
 10
37.312973
 20
52.291620
 30
0.0
 10
36.511625
 20
51.928045
 30
0.0
 10
35.664868
 20
51.621989
 30
0.0
 10
34.779112
 20
51.376290
 30
0.0
 10
33.860554
 20
51.190605
 30
0.0
 10
32.915388
 20
51.064601
 30
0.0
 10
31.948522
 20
50.997691
 30
0.0
 10
30.966179
 20
50.986492
 30
0.0
 10
29.969785
 20
51.027319
 30
0.0
 10
28.960765
 20
51.116489
 30
0.0
 10
27.943769
 20
51.258858
 30
0.0
 10
26.910429
 20
51.499952
 30
0.0
 10
25.894803
 20
51.875174
 30
0.0
 10
24.930945
 20
52.419936
 30
0.0
 10
24.486670
 20
52.764752
 30
0.0
 10
24.081986
 20
53.163549
 30
0.0
 10
23.728698
 20
53.613146
 30
0.0
 10
23.438611
 20
54.110368
 30
0.0
 10
23.223369
 20
54.647209
 30
0.0
 10
23.093342
 20
55.213620
 30
0.0
 10
23.054525
 20
55.796957
 30
0.0
 10
23.112913
 20
56.384585
 30
0.0
 10
23.274705
 20
56.961354
 30
0.0
 10
23.548931
 20
57.514736
 30
0.0
 10
23.946804
 20
58.010844
 30
0.0
 10
24.479537
 20
58.415795
 30
0.0
 10
24.793775
 20
58.564321
 30
0.0
 10
25.129882
 20
58.665990
 30
0.0
 10
25.482819
 20
58.716651
 30
0.0
 10
25.847545
 20
58.712030
 30
0.0
 10
26.155102
 20
58.669640
 30
0.0
 10
26.456541
 20
58.612167
 30
0.0
 10
26.754554
 20
58.537998
 30
0.0
 10
27.051831
 20
58.445518
 30
0.0
 10
27.630239
 20
58.201708
 30
0.0
 10
28.172577
 20
57.873729
 30
0.0
 10
28.660149
 20
57.469147
 30
0.0
 10
29.074261
 20
56.995667
 30
0.0
 10
29.409901
 20
56.473926
 30
0.0
 10
29.670537
 20
55.922467
 30
0.0
 10
29.863101
 20
55.352047
 30
0.0
 10
29.994528
 20
54.773424
 30
0.0
 10
30.112259
 20
53.608598
 30
0.0
 10
30.080808
 20
52.452469
 30
0.0
 10
29.921289
 20
51.307952
 30
0.0
 10
29.654816
 20
50.177971
 30
0.0
 10
29.268495
 20
49.071601
 30
0.0
 10
28.755718
 20
48.009804
 30
0.0
 10
28.130301
 20
47.004338
 30
0.0
 10
27.406060
 20
46.066951
 30
0.0
 10
26.604341
 20
45.197780
 30
0.0
 10
25.744702
 20
44.393306
 30
0.0
 10
24.842458
 20
43.644617
 30
0.0
 10
23.912927
 20
42.942806
 30
0.0
 10
22.965330
 20
42.279123
 30
0.0
 10
22.009739
 20
41.641563
 30
0.0
 10
21.052345
 20
41.022307
 30
0.0
 10
20.099342
 20
40.413526
 30
0.0
 10
18.225036
 20
39.201952
 30
0.0
 10
16.423135
 20
37.958470
 30
0.0
 10
14.724203
 20
36.657661
 30
0.0
 10
13.158806
 20
35.274106
 30
0.0
 10
11.752118
 20
33.803754
 30
0.0
 10
10.523150
 20
32.251305
 30
0.0
 10
9.474328
 20
30.635032
 30
0.0
 10
8.608079
 20
28.973210
 30
0.0
 10
7.913294
 20
27.289391
 30
0.0
 10
7.376131
 20
25.606344
 30
0.0
 10
6.973909
 20
23.943039
 30
0.0
 10
6.683943
 20
22.318447
 30
0.0
 10
6.490782
 20
20.743913
 30
0.0
 10
6.374469
 20
19.231154
 30
0.0
 10
6.322607
 20
17.787851
 30
0.0
 10
6.322797
 20
16.421684
 30
0.0
 10
6.358057
 20
15.138875
 30
0.0
 10
6.422250
 20
13.944965
 30
0.0
 10
6.507176
 20
12.844703
 30
0.0
 10
6.604635
 20
11.842839
 30
0.0
 10
6.652213
 20
11.379814
 30
0.0
 10
6.702075
 20
10.944526
 30
0.0
 10
6.752781
 20
10.537007
 30
0.0
 10
6.802890
 20
10.157284
 30
0.0
 10
6.847410
 20
9.805607
 30
0.0
 10
6.891876
 20
9.479231
 30
0.0
 10
6.935710
 20
9.179036
 30
0.0
 10
6.978336
 20
8.905902
 30
0.0
 10
7.047768
 20
8.451579
 30
0.0
 10
7.098180
 20
8.121782
 30
0.0
 10
7.128912
 20
7.920776
 30
0.0
 10
7.139303
 20
7.852826
 30
0.0
 10
7.115707
 20
7.437542
 30
0.0
 10
6.933708
 20
7.075874
 30
0.0
 10
6.623033
 20
6.805954
 30
0.0
 10
6.213412
 20
6.665915
 30
0.0
 10
5.778839
 20
6.688923
 30
0.0
 10
5.400157
 20
6.863271
 30
0.0
 10
5.117391
 20
7.160502
 30
0.0
 10
4.970564
 20
7.552157
 30
0.0
 10
4.969808
 20
7.556609
 30
0.0
 10
4.968979
 20
7.562050
 30
0.0
 10
4.968211
 20
7.567430
 30
0.0
 10
4.967639
 20
7.571699
 30
0.0
  0
LWPOLYLINE
  5
132
100
AcDbEntity
  8
leaves
 62
7
100
AcDbPolyline
 90
125
 70
1
 10
11.544132
 20
35.965766
 30
0.0
 10
11.546270
 20
35.967957
 30
0.0
 10
11.552665
 20
35.974467
 30
0.0
 10
11.563283
 20
35.985201
 30
0.0
 10
11.578094
 20
36.000065
 30
0.0
 10
11.580117
 20
36.002644
 30
0.0
 10
11.576875
 20
35.999770
 30
0.0
 10
11.571805
 20
35.994438
 30
0.0
 10
11.568343
 20
35.989641
 30
0.0
 10
11.565374
 20
35.984287
 30
0.0
 10
11.570823
 20
35.991448
 30
0.0
 10
11.579739
 20
36.003590
 30
0.0
 10
11.587173
 20
36.013179
 30
0.0
 10
11.629579
 20
36.073401
 30
0.0
 10
11.684311
 20
36.158023
 30
0.0
 10
11.749319
 20
36.265217
 30
0.0
 10
11.822556
 20
36.393153
 30
0.0
 10
11.989467
 20
36.706843
 30
0.0
 10
12.177815
 20
37.089633
 30
0.0
 10
12.381295
 20
37.535599
 30
0.0
 10
12.593602
 20
38.038813
 30
0.0
 10
13.023191
 20
39.194452
 30
0.0
 10
13.420341
 20
40.514491
 30
0.0
 10
13.728529
 20
41.947954
 30
0.0
 10
13.891232
 20
43.443868
 30
0.0
 10
13.893838
 20
44.192673
 30
0.0
 10
13.833647
 20
44.928585
 30
0.0
 10
13.701707
 20
45.635935
 30
0.0
 10
13.489064
 20
46.299057
 30
0.0
 10
13.354223
 20
46.609289
 30
0.0
 10
13.198451
 20
46.901048
 30
0.0
 10
13.024898
 20
47.173766
 30
0.0
 10
12.836718
 20
47.426876
 30
0.0
 10
12.633685
 20
47.657987
 30
0.0
 10
12.418956
 20
47.866242
 30
0.0
 10
12.196220
 20
48.052620
 30
0.0
 10
11.969166
 20
48.218097
 30
0.0
 10
11.513222
 20
48.490190
 30
0.0
 10
11.074838
 20
48.693275
 30
0.0
 10
10.671194
 20
48.839680
 30
0.0
 10
10.319471
 20
48.941730
 30
0.0
 10
10.166267
 20
48.978876
 30
0.0
 10
10.030497
 20
49.009907
 30
0.0
 10
9.912947
 20
49.034506
 30
0.0
 10
9.814407
 20
49.052360
 30
0.0
 10
9.736542
 20
49.066835
 30
0.0
 10
9.679987
 20
49.077369
 30
0.0
 10
9.645499
 20
49.083806
 30
0.0
 10
9.633835
 20
49.085986
 30
0.0
 10
9.631229
 20
49.086490
 30
0.0
 10
9.628623
 20
49.086995
 30
0.0
 10
9.626017
 20
49.087499
 30
0.0
 10
9.623411
 20
49.088003
 30
0.0
 10
9.542651
 20
49.120610
 30
0.0
 10
9.482728
 20
49.179634
 30
0.0
 10
9.449349
 20
49.256817
 30
0.0
 10
9.448219
 20
49.343898
 30
0.0
 10
9.478950
 20
49.421621
 30
0.0
 10
9.534428
 20
49.480462
 30
0.0
 10
9.607244
 20
49.515407
 30
0.0
 10
9.689991
 20
49.521442
 30
0.0
 10
9.702412
 20
49.519896
 30
0.0
 10
9.739169
 20
49.515349
 30
0.0
 10
9.799507
 20
49.507968
 30
0.0
 10
9.882668
 20
49.497905
 30
0.0
 10
9.987718
 20
49.485779
 30
0.0
 10
10.113763
 20
49.467726
 30
0.0
 10
10.260110
 20
49.443999
 30
0.0
 10
10.426065
 20
49.414849
 30
0.0
 10
10.810968
 20
49.329018
 30
0.0
 10
11.260496
 20
49.197793
 30
0.0
 10
11.759455
 20
49.004022
 30
0.0
 10
12.292648
 20
48.730558
 30
0.0
 10
12.564158
 20
48.557888
 30
0.0
 10
12.834785
 20
48.359242
 30
0.0
 10
13.099737
 20
48.133233
 30
0.0
 10
13.354223
 20
47.878474
 30
0.0
 10
13.593820
 20
47.596304
 30
0.0
 10
13.817591
 20
47.289639
 30
0.0
 10
14.021438
 20
46.960214
 30
0.0
 10
14.201264
 20
46.609762
 30
0.0
 10
14.494783
 20
45.862291
 30
0.0
 10
14.695525
 20
45.072168
 30
0.0
 10
14.814998
 20
44.257014
 30
0.0
 10
14.864706
 20
43.434452
 30
0.0
 10
14.792043
 20
41.806089
 30
0.0
 10
14.561315
 20
40.255780
 30
0.0
 10
14.229079
 20
38.830056
 30
0.0
 10
13.851889
 20
37.575446
 30
0.0
 10
13.659390
 20
37.023637
 30
0.0
 10
13.470738
 20
36.528793
 30
0.0
 10
13.290407
 20
36.094664
 30
0.0
 10
13.122876
 20
35.725003
 30
0.0
 10
13.044238
 20
35.564738
 30
0.0
 10
12.969415
 20
35.420898
 30
0.0
 10
12.897933
 20
35.292756
 30
0.0
 10
12.829320
 20
35.179589
 30
0.0
 10
12.811320
 20
35.152152
 30
0.0
 10
12.796787
 20
35.129318
 30
0.0
 10
12.779859
 20
35.104214
 30
0.0
 10
12.754671
 20
35.069968
 30
0.0
 10
12.730964
 20
35.040403
 30
0.0
 10
12.709275
 20
35.013266
 30
0.0
 10
12.689604
 20
34.988587
 30
0.0
 10
12.671950
 20
34.966399
 30
0.0
 10
12.658216
 20
34.950653
 30
0.0
 10
12.648328
 20
34.939288
 30
0.0
 10
12.642349
 20
34.932400
 30
0.0
 10
12.640342
 20
34.930083
 30
0.0
 10
12.402737
 20
34.747441
 30
0.0
 10
12.123299
 20
34.672676
 30
0.0
 10
11.836232
 20
34.708120
 30
0.0
 10
11.575741
 20
34.856106
 30
0.0
 10
11.393098
 20
35.093711
 30
0.0
 10
11.318333
 20
35.373149
 30
0.0
 10
11.353777
 20
35.660215
 30
0.0
 10
11.501763
 20
35.920707
 30
0.0
 10
11.509387
 20
35.929413
 30
0.0
 10
11.517105
 20
35.937898
 30
0.0
 10
11.524886
 20
35.946195
 30
0.0
 10
11.532699
 20
35.954333
 30
0.0
 10
11.535557
 20
35.957191
 30
0.0
 10
11.538416
 20
35.960050
 30
0.0
 10
11.541274
 20
35.962908
 30
0.0
 10
11.544132
 20
35.965766
 30
0.0
  0
LWPOLYLINE
  5
133
100
AcDbEntity
  8
leaves
 62
7
100
AcDbPolyline
 90
185
 70
0
 10
41.052451
 20
56.501110
 30
0.0
 10
41.058630
 20
56.508344
 30
0.0
 10
41.076914
 20
56.529734
 30
0.0
 10
41.106925
 20
56.564805
 30
0.0
 10
41.148285
 20
56.613084
 30
0.0
 10
41.204404
 20
56.674499
 30
0.0
 10
41.276442
 20
56.747799
 30
0.0
 10
41.362919
 20
56.829988
 30
0.0
 10
41.462353
 20
56.918073
 30
0.0
 10
41.711028
 20
57.103310
 30
0.0
 10
42.025841
 20
57.289305
 30
0.0
 10
42.405343
 20
57.455628
 30
0.0
 10
42.848083
 20
57.581851
 30
0.0
 10
43.090685
 20
57.622933
 30
0.0
 10
43.344320
 20
57.644942
 30
0.0
 10
43.609682
 20
57.645830
 30
0.0
 10
43.887465
 20
57.623548
 30
0.0
 10
44.151393
 20
57.578258
 30
0.0
 10
44.429223
 20
57.510396
 30
0.0
 10
44.710395
 20
57.416810
 30
0.0
 10
44.984347
 20
57.294349
 30
0.0
 10
45.248990
 20
57.138728
 30
0.0
 10
45.497019
 20
56.948210
 30
0.0
 10
45.722161
 20
56.724970
 30
0.0
 10
45.918143
 20
56.471182
 30
0.0
 10
46.080709
 20
56.192223
 30
0.0
 10
46.204847
 20
55.893907
 30
0.0
 10
46.293741
 20
55.582855
 30
0.0
 10
46.350574
 20
55.265688
 30
0.0
 10
46.368123
 20
55.105596
 30
0.0
 10
46.376719
 20
54.945315
 30
0.0
 10
46.378379
 20
54.785161
 30
0.0
 10
46.375121
 20
54.625447
 30
0.0
 10
46.368690
 20
54.545254
 30
0.0
 10
46.362512
 20
54.467867
 30
0.0
 10
46.354315
 20
54.386886
 30
0.0
 10
46.341832
 20
54.295912
 30
0.0
 10
46.325607
 20
54.221766
 30
0.0
 10
46.309382
 20
54.147621
 30
0.0
 10
46.293158
 20
54.073475
 30
0.0
 10
46.276933
 20
53.999330
 30
0.0
 10
46.167480
 20
53.693469
 30
0.0
 10
46.018685
 20
53.404569
 30
0.0
 10
45.832817
 20
53.143536
 30
0.0
 10
45.612146
 20
52.921278
 30
0.0
 10
45.363218
 20
52.738873
 30
0.0
 10
45.097835
 20
52.594643
 30
0.0
 10
44.821607
 20
52.488558
 30
0.0
 10
44.540147
 20
52.420586
 30
0.0
 10
44.257924
 20
52.393028
 30
0.0
 10
43.982164
 20
52.410204
 30
0.0
 10
43.718825
 20
52.466029
 30
0.0
 10
43.473864
 20
52.554418
 30
0.0
 10
43.250482
 20
52.674000
 30
0.0
 10
43.065307
 20
52.829143
 30
0.0
 10
42.912666
 20
53.003452
 30
0.0
 10
42.786884
 20
53.180535
 30
0.0
 10
42.744326
 20
53.273790
 30
0.0
 10
42.706685
 20
53.365689
 30
0.0
 10
42.672071
 20
53.455129
 30
0.0
 10
42.638593
 20
53.541007
 30
0.0
 10
42.620797
 20
53.625918
 30
0.0
 10
42.606942
 20
53.707834
 30
0.0
 10
42.595042
 20
53.786283
 30
0.0
 10
42.583110
 20
53.860791
 30
0.0
 10
42.571503
 20
53.931673
 30
0.0
 10
42.566675
 20
53.998111
 30
0.0
 10
42.566701
 20
54.060198
 30
0.0
 10
42.569659
 20
54.118030
 30
0.0
 10
42.571808
 20
54.171868
 30
0.0
 10
42.573735
 20
54.221388
 30
0.0
 10
42.575473
 20
54.266557
 30
0.0
 10
42.577053
 20
54.307345
 30
0.0
 10
42.579949
 20
54.375201
 30
0.0
 10
42.582057
 20
54.424490
 30
0.0
 10
42.583345
 20
54.454548
 30
0.0
 10
42.583782
 20
54.464715
 30
0.0
 10
42.600648
 20
54.532603
 30
0.0
 10
42.640778
 20
54.586903
 30
0.0
 10
42.698310
 20
54.622227
 30
0.0
 10
42.767380
 20
54.633181
 30
0.0
 10
42.835316
 20
54.616316
 30
0.0
 10
42.889695
 20
54.576185
 30
0.0
 10
42.925034
 20
54.518653
 30
0.0
 10
42.935847
 20
54.449583
 30
0.0
 10
42.935511
 20
54.442101
 30
0.0
 10
42.935174
 20
54.434619
 30
0.0
 10
42.934838
 20
54.427138
 30
0.0
 10
42.934502
 20
54.419656
 30
0.0
 10
42.934129
 20
54.410803
 30
0.0
 10
42.933031
 20
54.384643
 30
0.0
 10
42.931239
 20
54.341775
 30
0.0
 10
42.928786
 20
54.282798
 30
0.0
 10
42.927151
 20
54.247370
 30
0.0
 10
42.925297
 20
54.208190
 30
0.0
 10
42.923253
 20
54.165290
 30
0.0
 10
42.921052
 20
54.118703
 30
0.0
 10
42.917563
 20
54.068143
 30
0.0
 10
42.916848
 20
54.014588
 30
0.0
 10
42.920673
 20
53.958448
 30
0.0
 10
42.930803
 20
53.900133
 30
0.0
 10
42.940308
 20
53.838345
 30
0.0
 10
42.949339
 20
53.773027
 30
0.0
 10
42.959695
 20
53.704934
 30
0.0
 10
42.973172
 20
53.634823
 30
0.0
 10
43.000504
 20
53.567030
 30
0.0
 10
43.027646
 20
53.495990
 30
0.0
 10
43.056302
 20
53.422743
 30
0.0
 10
43.088173
 20
53.348329
 30
0.0
 10
43.185720
 20
53.212249
 30
0.0
 10
43.301362
 20
53.076799
 30
0.0
 10
43.442728
 20
52.955472
 30
0.0
 10
43.617447
 20
52.861760
 30
0.0
 10
43.811932
 20
52.790625
 30
0.0
 10
44.025079
 20
52.743354
 30
0.0
 10
44.252224
 20
52.727039
 30
0.0
 10
44.488699
 20
52.748775
 30
0.0
 10
44.726603
 20
52.804957
 30
0.0
 10
44.961229
 20
52.893325
 30
0.0
 10
45.187407
 20
53.013911
 30
0.0
 10
45.399965
 20
53.166747
 30
0.0
 10
45.447210
 20
53.213823
 30
0.0
 10
45.494455
 20
53.260900
 30
0.0
 10
45.541699
 20
53.307976
 30
0.0
 10
45.588944
 20
53.355053
 30
0.0
 10
45.631554
 20
53.406711
 30
0.0
 10
45.670319
 20
53.461901
 30
0.0
 10
45.707822
 20
53.518477
 30
0.0
 10
45.746650
 20
53.574296
 30
0.0
 10
45.786098
 20
53.630089
 30
0.0
 10
45.817854
 20
53.688751
 30
0.0
 10
45.845195
 20
53.749115
 30
0.0
 10
45.871404
 20
53.810015
 30
0.0
 10
45.898167
 20
53.870847
 30
0.0
 10
45.926382
 20
53.930985
 30
0.0
 10
45.951319
 20
53.995284
 30
0.0
 10
45.968247
 20
54.068600
 30
0.0
 10
45.984976
 20
54.142661
 30
0.0
 10
46.001705
 20
54.216723
 30
0.0
 10
46.018434
 20
54.290784
 30
0.0
 10
46.035162
 20
54.364845
 30
0.0
 10
46.043028
 20
54.424605
 30
0.0
 10
46.050419
 20
54.495399
 30
0.0
 10
46.057245
 20
54.570353
 30
0.0
 10
46.063408
 20
54.642597
 30
0.0
 10
46.067380
 20
54.789106
 30
0.0
 10
46.066942
 20
54.935774
 30
0.0
 10
46.060197
 20
55.082126
 30
0.0
 10
46.045250
 20
55.227690
 30
0.0
 10
45.995767
 20
55.514689
 30
0.0
 10
45.918227
 20
55.793869
 30
0.0
 10
45.810046
 20
56.059557
 30
0.0
 10
45.668638
 20
56.306078
 30
0.0
 10
45.498390
 20
56.529660
 30
0.0
 10
45.302324
 20
56.726825
 30
0.0
 10
45.084884
 20
56.896121
 30
0.0
 10
44.850515
 20
57.036100
 30
0.0
 10
44.604226
 20
57.147839
 30
0.0
 10
44.355540
 20
57.233443
 30
0.0
 10
44.101306
 20
57.297548
 30
0.0
 10
43.838371
 20
57.344788
 30
0.0
 10
43.597261
 20
57.365021
 30
0.0
 10
43.357602
 20
57.365678
 30
0.0
 10
43.124626
 20
57.347483
 30
0.0
 10
42.903566
 20
57.311162
 30
0.0
 10
42.497552
 20
57.198498
 30
0.0
 10
42.149165
 20
57.048668
 30
0.0
 10
41.860044
 20
56.880617
 30
0.0
 10
41.631828
 20
56.713290
 30
0.0
 10
41.540565
 20
56.633239
 30
0.0
 10
41.463866
 20
56.561636
 30
0.0
 10
41.400029
 20
56.497852
 30
0.0
 10
41.347351
 20
56.441255
 30
0.0
 10
41.305744
 20
56.393222
 30
0.0
 10
41.275518
 20
56.358367
 30
0.0
 10
41.257081
 20
56.337130
 30
0.0
 10
41.250845
 20
56.329953
 30
0.0
 10
41.209653
 20
56.298308
 30
0.0
 10
41.161147
 20
56.285356
 30
0.0
 10
41.111254
 20
56.291509
 30
0.0
 10
41.065901
 20
56.317175
 30
0.0
 10
41.034387
 20
56.358115
 30
0.0
 10
41.021347
 20
56.406368
 30
0.0
 10
41.027221
 20
56.456009
 30
0.0
 10
41.052451
 20
56.501110
 30
0.0
  0
LWPOLYLINE
  5
134
100
AcDbEntity
  8
leaves
 62
7
100
AcDbPolyline
 90
33
 70
0
 10
37.367612
 20
58.946489
 30
0.0
 10
37.331101
 20
58.954743
 30
0.0
 10
37.294685
 20
58.962840
 30
0.0
 10
37.258332
 20
58.970747
 30
0.0
 10
37.222011
 20
58.978434
 30
0.0
 10
37.241514
 20
58.977509
 30
0.0
 10
37.261017
 20
58.976584
 30
0.0
 10
37.280520
 20
58.975659
 30
0.0
 10
37.300023
 20
58.974735
 30
0.0
 10
37.147393
 20
59.056562
 30
0.0
 10
36.780837
 20
59.211210
 30
0.0
 10
36.337362
 20
59.302431
 30
0.0
 10
35.953972
 20
59.193977
 30
0.0
 10
35.848838
 20
59.254073
 30
0.0
 10
35.587027
 20
59.356979
 30
0.0
 10
35.248928
 20
59.386623
 30
0.0
 10
34.914926
 20
59.226930
 30
0.0
 10
34.806072
 20
59.259611
 30
0.0
 10
34.545712
 20
59.307044
 30
0.0
 10
34.233147
 20
59.293321
 30
0.0
 10
33.967680
 20
59.142529
 30
0.0
 10
32.608525
 20
58.742563
 30
0.0
 10
31.594436
 20
58.050396
 30
0.0
 10
30.946157
 20
57.111898
 30
0.0
 10
30.684431
 20
55.972936
 30
0.0
 10
30.687222
 20
55.273061
 30
0.0
 10
30.734098
 20
54.458754
 30
0.0
 10
30.795729
 20
53.717078
 30
0.0
 10
30.842795
 20
53.235101
 30
0.0
 10
31.560511
 20
55.056546
 30
0.0
 10
32.963002
 20
56.809930
 30
0.0
 10
34.936590
 20
58.203747
 30
0.0
 10
37.367612
 20
58.946489
 30
0.0
  0
LWPOLYLINE
  5
135
100
AcDbEntity
  8
leaves
 62
7
100
AcDbPolyline
 90
61
 70
0
 10
37.457731
 20
58.925943
 30
0.0
 10
37.435091
 20
58.931182
 30
0.0
 10
37.412546
 20
58.936325
 30
0.0
 10
37.390064
 20
58.941406
 30
0.0
 10
37.367613
 20
58.946455
 30
0.0
 10
34.936606
 20
58.203713
 30
0.0
 10
32.963018
 20
56.809897
 30
0.0
 10
31.560528
 20
55.056513
 30
0.0
 10
30.842811
 20
53.235067
 30
0.0
 10
30.845165
 20
53.213133
 30
0.0
 10
30.847148
 20
53.194255
 30
0.0
 10
30.848830
 20
53.178468
 30
0.0
 10
30.850208
 20
53.165801
 30
0.0
 10
30.848023
 20
53.165885
 30
0.0
 10
30.845837
 20
53.165969
 30
0.0
 10
30.843651
 20
53.166053
 30
0.0
 10
30.841466
 20
53.166137
 30
0.0
 10
30.811707
 20
52.970938
 30
0.0
 10
30.781948
 20
52.775739
 30
0.0
 10
30.752188
 20
52.580539
 30
0.0
 10
30.722429
 20
52.385340
 30
0.0
 10
30.928473
 20
52.542122
 30
0.0
 10
31.134517
 20
52.698903
 30
0.0
 10
31.340561
 20
52.855685
 30
0.0
 10
31.546604
 20
53.012466
 30
0.0
 10
32.003787
 20
52.929042
 30
0.0
 10
32.500534
 20
52.844420
 30
0.0
 10
32.992678
 20
52.769507
 30
0.0
 10
33.436053
 20
52.715208
 30
0.0
 10
33.676826
 20
52.678183
 30
0.0
 10
34.101513
 20
52.640937
 30
0.0
 10
34.526956
 20
52.666550
 30
0.0
 10
34.769999
 20
52.818103
 30
0.0
 10
34.813188
 20
52.831534
 30
0.0
 10
34.855998
 20
52.845593
 30
0.0
 10
34.898430
 20
52.860284
 30
0.0
 10
34.940484
 20
52.875604
 30
0.0
 10
35.140553
 20
52.898285
 30
0.0
 10
35.351184
 20
52.953658
 30
0.0
 10
35.516861
 20
53.056002
 30
0.0
 10
35.582069
 20
53.219599
 30
0.0
 10
35.601425
 20
53.233584
 30
0.0
 10
35.620655
 20
53.247761
 30
0.0
 10
35.639759
 20
53.262062
 30
0.0
 10
35.658737
 20
53.276427
 30
0.0
 10
35.852402
 20
53.343522
 30
0.0
 10
36.074943
 20
53.464902
 30
0.0
 10
36.241119
 20
53.647817
 30
0.0
 10
36.265687
 20
53.899519
 30
0.0
 10
36.268468
 20
53.903301
 30
0.0
 10
36.271279
 20
53.907084
 30
0.0
 10
36.274154
 20
53.910867
 30
0.0
 10
36.277124
 20
53.914650
 30
0.0
 10
36.412784
 20
54.006691
 30
0.0
 10
36.609345
 20
54.186685
 30
0.0
 10
36.758498
 20
54.433763
 30
0.0
 10
36.751920
 20
54.727056
 30
0.0
 10
37.113768
 20
55.735371
 30
0.0
 10
37.338106
 20
56.814773
 30
0.0
 10
37.445804
 20
57.900038
 30
0.0
 10
37.457731
 20
58.925943
 30
0.0
  0
LWPOLYLINE
  5
136
100
AcDbEntity
  8
leaves
 62
7
100
AcDbPolyline
 90
33
 70
0
 10
30.074177
 20
64.982720
 30
0.0
 10
30.047812
 20
64.970309
 30
0.0
 10
30.021636
 20
64.957836
 30
0.0
 10
29.995586
 20
64.945363
 30
0.0
 10
29.969600
 20
64.932953
 30
0.0
 10
29.981957
 20
64.941696
 30
0.0
 10
29.994315
 20
64.950439
 30
0.0
 10
30.006672
 20
64.959181
 30
0.0
 10
30.019030
 20
64.967924
 30
0.0
 10
29.886275
 20
64.945174
 30
0.0
 10
29.587481
 20
64.864860
 30
0.0
 10
29.271853
 20
64.708888
 30
0.0
 10
29.088596
 20
64.459162
 30
0.0
 10
28.995300
 20
64.445811
 30
0.0
 10
28.785331
 20
64.383881
 30
0.0
 10
28.563573
 20
64.240555
 30
0.0
 10
28.434906
 20
63.983017
 30
0.0
 10
28.352496
 20
63.951014
 30
0.0
 10
28.170058
 20
63.855616
 30
0.0
 10
27.984784
 20
63.697736
 30
0.0
 10
27.893862
 20
63.478289
 30
0.0
 10
27.250937
 20
62.583484
 30
0.0
 10
26.959352
 20
61.674209
 30
0.0
 10
27.009933
 20
60.788577
 30
0.0
 10
27.393506
 20
59.964701
 30
0.0
 10
27.729641
 20
59.536368
 30
0.0
 10
28.147487
 20
59.058983
 30
0.0
 10
28.539735
 20
58.633298
 30
0.0
 10
28.799076
 20
58.360065
 30
0.0
 10
28.369209
 20
59.820671
 30
0.0
 10
28.392032
 20
61.566857
 30
0.0
 10
28.937153
 20
63.365311
 30
0.0
 10
30.074177
 20
64.982720
 30
0.0
  0
LWPOLYLINE
  5
137
100
AcDbEntity
  8
leaves
 62
7
100
AcDbPolyline
 90
61
 70
0
 10
30.139310
 20
65.013218
 30
0.0
 10
30.122970
 20
65.005647
 30
0.0
 10
30.106693
 20
64.998045
 30
0.0
 10
30.090416
 20
64.990379
 30
0.0
 10
30.074076
 20
64.982619
 30
0.0
 10
28.937194
 20
63.365257
 30
0.0
 10
28.392057
 20
61.566883
 30
0.0
 10
28.369155
 20
59.820712
 30
0.0
 10
28.798975
 20
58.359964
 30
0.0
 10
28.811007
 20
58.347674
 30
0.0
 10
28.821336
 20
58.337055
 30
0.0
 10
28.829901
 20
58.328137
 30
0.0
 10
28.836636
 20
58.320955
 30
0.0
 10
28.835291
 20
58.320047
 30
0.0
 10
28.833946
 20
58.319139
 30
0.0
 10
28.832601
 20
58.318197
 30
0.0
 10
28.831256
 20
58.317290
 30
0.0
 10
28.906242
 20
58.183206
 30
0.0
 10
28.981228
 20
58.049122
 30
0.0
 10
29.056214
 20
57.915038
 30
0.0
 10
29.131201
 20
57.780954
 30
0.0
 10
29.182732
 20
57.975649
 30
0.0
 10
29.234264
 20
58.170344
 30
0.0
 10
29.285796
 20
58.365039
 30
0.0
 10
29.337328
 20
58.559734
 30
0.0
 10
29.657843
 20
58.726939
 30
0.0
 10
30.003167
 20
58.912303
 30
0.0
 10
30.340988
 20
59.101449
 30
0.0
 10
30.638993
 20
59.279974
 30
0.0
 10
30.804507
 20
59.372345
 30
0.0
 10
31.082942
 20
59.552387
 30
0.0
 10
31.331743
 20
59.771329
 30
0.0
 10
31.408358
 20
59.980405
 30
0.0
 10
31.428481
 20
60.009424
 30
0.0
 10
31.448037
 20
60.038537
 30
0.0
 10
31.467088
 20
60.067839
 30
0.0
 10
31.485698
 20
60.097423
 30
0.0
 10
31.597615
 20
60.206939
 30
0.0
 10
31.700358
 20
60.341549
 30
0.0
 10
31.753104
 20
60.483472
 30
0.0
 10
31.715028
 20
60.614929
 30
0.0
 10
31.720061
 20
60.632834
 30
0.0
 10
31.725031
 20
60.650740
 30
0.0
 10
31.729876
 20
60.668646
 30
0.0
 10
31.734531
 20
60.686552
 30
0.0
 10
31.821528
 20
60.820289
 30
0.0
 10
31.900139
 20
61.001124
 30
0.0
 10
31.914693
 20
61.192803
 30
0.0
 10
31.809517
 20
61.359074
 30
0.0
 10
31.809512
 20
61.362658
 30
0.0
 10
31.809475
 20
61.366303
 30
0.0
 10
31.809375
 20
61.369948
 30
0.0
 10
31.809181
 20
61.373533
 30
0.0
 10
31.848576
 20
61.494860
 30
0.0
 10
31.883242
 20
61.699285
 30
0.0
 10
31.856751
 20
61.922247
 30
0.0
 10
31.712674
 20
62.099183
 30
0.0
 10
31.452933
 20
62.890851
 30
0.0
 10
31.074787
 20
63.660484
 30
0.0
 10
30.622243
 20
64.377975
 30
0.0
 10
30.139310
 20
65.013218
 30
0.0
  0
LWPOLYLINE
  5
138
100
AcDbEntity
  8
leaves
 62
7
100
AcDbPolyline
 90
33
 70
0
 10
41.304850
 20
47.564981
 30
0.0
 10
41.303326
 20
47.593979
 30
0.0
 10
41.301739
 20
47.622944
 30
0.0
 10
41.300027
 20
47.651847
 30
0.0
 10
41.298125
 20
47.680655
 30
0.0
 10
41.301571
 20
47.665860
 30
0.0
 10
41.305018
 20
47.651064
 30
0.0
 10
41.308465
 20
47.636269
 30
0.0
 10
41.311911
 20
47.621473
 30
0.0
 10
41.341077
 20
47.752993
 30
0.0
 10
41.379794
 20
48.060041
 30
0.0
 10
41.354895
 20
48.411350
 30
0.0
 10
41.193211
 20
48.675651
 30
0.0
 10
41.216098
 20
48.767024
 30
0.0
 10
41.238102
 20
48.984716
 30
0.0
 10
41.189239
 20
49.244083
 30
0.0
 10
40.999525
 20
49.460483
 30
0.0
 10
41.001096
 20
49.548888
 30
0.0
 10
40.981829
 20
49.753870
 30
0.0
 10
40.905756
 20
49.985081
 30
0.0
 10
40.736905
 20
50.152171
 30
0.0
 10
40.151959
 20
51.085957
 30
0.0
 10
39.420613
 20
51.699895
 30
0.0
 10
38.581580
 20
51.988123
 30
0.0
 10
37.673571
 20
51.944777
 30
0.0
 10
37.150133
 20
51.795667
 30
0.0
 10
36.550250
 20
51.589433
 30
0.0
 10
36.007803
 20
51.387362
 30
0.0
 10
35.656679
 20
51.250735
 30
0.0
 10
37.171476
 20
51.096160
 30
0.0
 10
38.779238
 20
50.414370
 30
0.0
 10
40.237763
 20
49.229325
 30
0.0
 10
41.304850
 20
47.564981
 30
0.0
  0
LWPOLYLINE
  5
139
100
AcDbEntity
  8
leaves
 62
7
100
AcDbPolyline
 90
61
 70
0
 10
41.308414
 20
47.493156
 30
0.0
 10
41.307600
 20
47.511256
 30
0.0
 10
41.306691
 20
47.529262
 30
0.0
 10
41.305719
 20
47.547205
 30
0.0
 10
41.304715
 20
47.565116
 30
0.0
 10
40.237776
 20
49.229412
 30
0.0
 10
38.779271
 20
50.414379
 30
0.0
 10
37.171530
 20
51.096153
 30
0.0
 10
35.656881
 20
51.250869
 30
0.0
 10
35.640865
 20
51.244501
 30
0.0
 10
35.627122
 20
51.239016
 30
0.0
 10
35.615645
 20
51.234413
 30
0.0
 10
35.606442
 20
51.230694
 30
0.0
 10
35.606038
 20
51.232274
 30
0.0
 10
35.605635
 20
51.233855
 30
0.0
 10
35.605198
 20
51.235469
 30
0.0
 10
35.604794
 20
51.237049
 30
0.0
 10
35.452384
 20
51.218387
 30
0.0
 10
35.299974
 20
51.199724
 30
0.0
 10
35.147564
 20
51.181062
 30
0.0
 10
34.995153
 20
51.162399
 30
0.0
 10
35.155886
 20
51.041009
 30
0.0
 10
35.316619
 20
50.919619
 30
0.0
 10
35.477351
 20
50.798229
 30
0.0
 10
35.638084
 20
50.676839
 30
0.0
 10
35.671495
 20
50.316982
 30
0.0
 10
35.712440
 20
49.927272
 30
0.0
 10
35.759753
 20
49.543047
 30
0.0
 10
35.812233
 20
49.199679
 30
0.0
 10
35.835125
 20
49.011531
 30
0.0
 10
35.896509
 20
48.685621
 30
0.0
 10
36.005115
 20
48.372446
 30
0.0
 10
36.169678
 20
48.222506
 30
0.0
 10
36.188788
 20
48.192799
 30
0.0
 10
36.208308
 20
48.163660
 30
0.0
 10
36.228268
 20
48.135025
 30
0.0
 10
36.248700
 20
48.106832
 30
0.0
 10
36.307745
 20
47.961620
 30
0.0
 10
36.393460
 20
47.815462
 30
0.0
 10
36.504899
 20
47.712934
 30
0.0
 10
36.641116
 20
47.698611
 30
0.0
 10
36.655554
 20
47.687074
 30
0.0
 10
36.670118
 20
47.675662
 30
0.0
 10
36.684809
 20
47.664376
 30
0.0
 10
36.699625
 20
47.653216
 30
0.0
 10
36.790668
 20
47.522185
 30
0.0
 10
36.928367
 20
47.380971
 30
0.0
 10
37.100238
 20
47.294925
 30
0.0
 10
37.293798
 20
47.329397
 30
0.0
 10
37.297275
 20
47.328136
 30
0.0
 10
37.300691
 20
47.326875
 30
0.0
 10
37.304108
 20
47.325614
 30
0.0
 10
37.307585
 20
47.324353
 30
0.0
 10
37.405090
 20
47.242069
 30
0.0
 10
37.581217
 20
47.132643
 30
0.0
 10
37.797569
 20
47.072836
 30
0.0
 10
38.015750
 20
47.139410
 30
0.0
 10
38.846954
 20
47.080296
 30
0.0
 10
39.702433
 20
47.139116
 30
0.0
 10
40.537736
 20
47.286519
 30
0.0
 10
41.308414
 20
47.493156
 30
0.0
  0
LWPOLYLINE
  5
13a
100
AcDbEntity
  8
leaves
 62
7
100
AcDbPolyline
 90
33
 70
0
 10
20.652425
 20
51.722643
 30
0.0
 10
20.681422
 20
51.720820
 30
0.0
 10
20.710388
 20
51.718902
 30
0.0
 10
20.739291
 20
51.716922
 30
0.0
 10
20.768099
 20
51.714909
 30
0.0
 10
20.753303
 20
51.718440
 30
0.0
 10
20.738508
 20
51.721971
 30
0.0
 10
20.723712
 20
51.725501
 30
0.0
 10
20.708917
 20
51.729032
 30
0.0
 10
20.840700
 20
51.756952
 30
0.0
 10
21.148073
 20
51.792754
 30
0.0
 10
21.499077
 20
51.764497
 30
0.0
 10
21.761749
 20
51.600244
 30
0.0
 10
21.853380
 20
51.622259
 30
0.0
 10
22.071361
 20
51.642193
 30
0.0
 10
22.330324
 20
51.590882
 30
0.0
 10
22.544900
 20
51.399160
 30
0.0
 10
22.633311
 20
51.399870
 30
0.0
 10
22.838078
 20
51.378606
 30
0.0
 10
23.068505
 20
51.300284
 30
0.0
 10
23.233898
 20
51.129816
 30
0.0
 10
24.162020
 20
50.535806
 30
0.0
 10
24.768844
 20
49.798517
 30
0.0
 10
25.048950
 20
48.956757
 30
0.0
 10
24.996913
 20
48.049331
 30
0.0
 10
24.842769
 20
47.527323
 30
0.0
 10
24.630809
 20
46.929373
 30
0.0
 10
24.423515
 20
46.388860
 30
0.0
 10
24.283368
 20
46.039165
 30
0.0
 10
24.143457
 20
47.555364
 30
0.0
 10
23.477309
 20
49.169668
 30
0.0
 10
22.306455
 20
50.639590
 30
0.0
 10
20.652425
 20
51.722643
 30
0.0
  0
LWPOLYLINE
  5
13b
100
AcDbEntity
  8
leaves
 62
7
100
AcDbPolyline
 90
61
 70
0
 10
20.580633
 20
51.726880
 30
0.0
 10
20.598728
 20
51.725866
 30
0.0
 10
20.616697
 20
51.724820
 30
0.0
 10
20.634540
 20
51.723712
 30
0.0
 10
20.652257
 20
51.722509
 30
0.0
 10
22.306339
 20
50.639455
 30
0.0
 10
23.477309
 20
49.169533
 30
0.0
 10
24.143573
 20
47.555230
 30
0.0
 10
24.283536
 20
46.039030
 30
0.0
 10
24.276972
 20
46.023209
 30
0.0
 10
24.271387
 20
46.009564
 30
0.0
 10
24.266747
 20
45.998124
 30
0.0
 10
24.263021
 20
45.988924
 30
0.0
 10
24.264601
 20
45.988588
 30
0.0
 10
24.266182
 20
45.988252
 30
0.0
 10
24.267762
 20
45.987915
 30
0.0
 10
24.269376
 20
45.987579
 30
0.0
 10
24.249201
 20
45.835253
 30
0.0
 10
24.229025
 20
45.682927
 30
0.0
 10
24.208849
 20
45.530601
 30
0.0
 10
24.188674
 20
45.378275
 30
0.0
 10
24.068881
 20
45.540184
 30
0.0
 10
23.949088
 20
45.702094
 30
0.0
 10
23.829295
 20
45.864003
 30
0.0
 10
23.709539
 20
46.025916
 30
0.0
 10
23.349945
 20
46.062863
 30
0.0
 10
22.960560
 20
46.107628
 30
0.0
 10
22.576787
 20
46.158697
 30
0.0
 10
22.234027
 20
46.214559
 30
0.0
 10
22.046073
 20
46.239300
 30
0.0
 10
21.720767
 20
46.303794
 30
0.0
 10
21.408639
 20
46.415385
 30
0.0
 10
21.260216
 20
46.581419
 30
0.0
 10
21.230757
 20
46.600781
 30
0.0
 10
21.201833
 20
46.620553
 30
0.0
 10
21.173351
 20
46.640766
 30
0.0
 10
21.145215
 20
46.661449
 30
0.0
 10
21.000823
 20
46.721923
 30
0.0
 10
20.855611
 20
46.809067
 30
0.0
 10
20.754154
 20
46.921431
 30
0.0
 10
20.741030
 20
47.057564
 30
0.0
 10
20.729691
 20
47.072255
 30
0.0
 10
20.718416
 20
47.087071
 30
0.0
 10
20.707267
 20
47.102014
 30
0.0
 10
20.696307
 20
47.117082
 30
0.0
 10
20.566074
 20
47.209207
 30
0.0
 10
20.426164
 20
47.348177
 30
0.0
 10
20.341799
 20
47.520816
 30
0.0
 10
20.378204
 20
47.713945
 30
0.0
 10
20.376943
 20
47.717469
 30
0.0
 10
20.375682
 20
47.720963
 30
0.0
 10
20.374421
 20
47.724393
 30
0.0
 10
20.373161
 20
47.727722
 30
0.0
 10
20.291833
 20
47.826057
 30
0.0
 10
20.184056
 20
48.003203
 30
0.0
 10
20.126277
 20
48.220070
 30
0.0
 10
20.194942
 20
48.437578
 30
0.0
 10
20.143894
 20
49.269345
 30
0.0
 10
20.210999
 20
50.124220
 30
0.0
 10
20.366498
 20
50.958099
 30
0.0
 10
20.580633
 20
51.726880
 30
0.0
  0
LWPOLYLINE
  5
13c
100
AcDbEntity
  8
leaves
 62
7
100
AcDbPolyline
 90
33
 70
0
 10
13.650973
 20
52.972485
 30
0.0
 10
13.669073
 20
52.962198
 30
0.0
 10
13.687079
 20
52.951973
 30
0.0
 10
13.705022
 20
52.941749
 30
0.0
 10
13.722933
 20
52.931461
 30
0.0
 10
13.714526
 20
52.938355
 30
0.0
 10
13.706120
 20
52.945248
 30
0.0
 10
13.697713
 20
52.952141
 30
0.0
 10
13.689307
 20
52.959035
 30
0.0
 10
13.782656
 20
52.935764
 30
0.0
 10
13.991227
 20
52.862654
 30
0.0
 10
14.207805
 20
52.734754
 30
0.0
 10
14.325176
 20
52.547115
 30
0.0
 10
14.390878
 20
52.532614
 30
0.0
 10
14.537062
 20
52.477257
 30
0.0
 10
14.687344
 20
52.363265
 30
0.0
 10
14.765341
 20
52.172857
 30
0.0
 10
14.822290
 20
52.145699
 30
0.0
 10
14.947048
 20
52.068070
 30
0.0
 10
15.070482
 20
51.945739
 30
0.0
 10
15.123459
 20
51.784476
 30
0.0
 10
15.533760
 20
51.112827
 30
0.0
 10
15.693000
 20
50.449689
 30
0.0
 10
15.609755
 20
49.821607
 30
0.0
 10
15.292598
 20
49.255123
 30
0.0
 10
15.030341
 20
48.968051
 30
0.0
 10
14.707210
 20
48.650274
 30
0.0
 10
14.405075
 20
48.367931
 30
0.0
 10
14.205803
 20
48.187159
 30
0.0
 10
14.590039
 20
49.204684
 30
0.0
 10
14.666943
 20
50.449689
 30
0.0
 10
14.374569
 20
51.759761
 30
0.0
 10
13.650973
 20
52.972485
 30
0.0
  0
SPLINE
  5
13d
100
AcDbEntity
  8
leaves
 62
7
100
AcDbSpline
 70
0
 71
3
 72
10
 73
6
 74
4
 40
0.000000
 40
0.000000
 40
0.000000
 40
0.000000
 40
0.890523
 40
1.927815
 40
3.044094
 40
3.044094
 40
3.044094
 40
3.044094
 10
58.442248
 20
25.783096
 30
0.0
 10
58.683853
 20
25.959302
 30
0.0
 10
59.206883
 20
26.340755
 30
0.0
 10
60.259762
 20
26.520038
 30
0.0
 10
60.948727
 20
26.294014
 30
0.0
 10
61.305844
 20
26.176857
 30
0.0
 11
58.442248
 21
25.783096
 31
0.0
 11
59.197738
 21
26.254546
 31
0.0
 11
60.219472
 21
26.433524
 31
0.0
 11
61.305844
 21
26.176857
 31
0.0
  0
LWPOLYLINE
  5
13e
100
AcDbEntity
  8
leaves
 62
7
100
AcDbPolyline
 90
61
 70
0
 10
13.606183
 20
52.997671
 30
0.0
 10
13.617474
 20
52.991366
 30
0.0
 10
13.628671
 20
52.985061
 30
0.0
 10
13.639804
 20
52.978756
 30
0.0
 10
13.650906
 20
52.972451
 30
0.0
 10
14.374502
 20
51.759727
 30
0.0
 10
14.666875
 20
50.449656
 30
0.0
 10
14.589972
 20
49.204650
 30
0.0
 10
14.205736
 20
48.187126
 30
0.0
 10
14.196589
 20
48.178924
 30
0.0
 10
14.188797
 20
48.171953
 30
0.0
 10
14.182329
 20
48.166180
 30
0.0
 10
14.177154
 20
48.161570
 30
0.0
 10
14.177994
 20
48.160729
 30
0.0
 10
14.178835
 20
48.159888
 30
0.0
 10
14.179676
 20
48.159048
 30
0.0
 10
14.180516
 20
48.158207
 30
0.0
 10
14.119989
 20
48.066744
 30
0.0
 10
14.059463
 20
47.975281
 30
0.0
 10
13.998936
 20
47.883818
 30
0.0
 10
13.938409
 20
47.792355
 30
0.0
 10
13.912096
 20
47.933837
 30
0.0
 10
13.885784
 20
48.075319
 30
0.0
 10
13.859471
 20
48.216801
 30
0.0
 10
13.833159
 20
48.358282
 30
0.0
 10
13.613812
 20
48.494347
 30
0.0
 10
13.377694
 20
48.644818
 30
0.0
 10
13.147124
 20
48.797623
 30
0.0
 10
12.944422
 20
48.940686
 30
0.0
 10
12.831465
 20
49.015278
 30
0.0
 10
12.642754
 20
49.158372
 30
0.0
 10
12.477183
 20
49.327632
 30
0.0
 10
12.433642
 20
49.480720
 30
0.0
 10
12.420917
 20
49.502271
 30
0.0
 10
12.408507
 20
49.524014
 30
0.0
 10
12.396475
 20
49.545881
 30
0.0
 10
12.384884
 20
49.567812
 30
0.0
 10
12.311080
 20
49.651977
 30
0.0
 10
12.245126
 20
49.753386
 30
0.0
 10
12.215172
 20
49.857254
 30
0.0
 10
12.249371
 20
49.948795
 30
0.0
 10
12.246607
 20
49.961857
 30
0.0
 10
12.243907
 20
49.974855
 30
0.0
 10
12.241331
 20
49.987854
 30
0.0
 10
12.238947
 20
50.000916
 30
0.0
 10
12.184200
 20
50.100764
 30
0.0
 10
12.137901
 20
50.233776
 30
0.0
 10
12.137754
 20
50.371076
 30
0.0
 10
12.221462
 20
50.483786
 30
0.0
 10
12.221714
 20
50.486503
 30
0.0
 10
12.221966
 20
50.489126
 30
0.0
 10
12.222218
 20
50.491685
 30
0.0
 10
12.222470
 20
50.494213
 30
0.0
 10
12.200934
 20
50.582834
 30
0.0
 10
12.187121
 20
50.730311
 30
0.0
 10
12.217883
 20
50.887686
 30
0.0
 10
12.330074
 20
51.005999
 30
0.0
 10
12.557365
 20
51.556090
 30
0.0
 10
12.867755
 20
52.084051
 30
0.0
 10
13.228331
 20
52.570904
 30
0.0
 10
13.606183
 20
52.997671
 30
0.0
  0
SPLINE
  5
13f
100
AcDbEntity
  8
leaves
 62
7
100
AcDbSpline
 70
0
 71
3
 72
10
 73
6
 74
4
 40
0.000000
 40
0.000000
 40
0.000000
 40
0.000000
 40
0.016574
 40
0.033220
 40
0.049794
 40
0.049794
 40
0.049794
 40
0.049794
 10
33.091476
 20
48.269726
 30
0.0
 10
33.093047
 20
48.275022
 30
0.0
 10
33.096197
 20
48.285638
 30
0.0
 10
33.100877
 20
48.301563
 30
0.0
 10
33.104027
 20
48.312178
 30
0.0
 10
33.105599
 20
48.317475
 30
0.0
 11
33.091476
 21
48.269726
 31
0.0
 11
33.096183
 21
48.285617
 31
0.0
 11
33.100891
 21
48.301583
 31
0.0
 11
33.105599
 21
48.317475
 31
0.0
  0
SPLINE
  5
140
100
AcDbEntity
  8
leaves
 62
7
100
AcDbSpline
 70
0
 71
3
 72
16
 73
12
 74
10
 40
0.000000
 40
0.000000
 40
0.000000
 40
0.000000
 40
0.096562
 40
0.291753
 40
0.471580
 40
0.539163
 40
0.679928
 40
0.839625
 40
0.903155
 40
1.035034
 40
1.170160
 40
1.170160
 40
1.170160
 40
1.170160
 10
33.102572
 20
48.291583
 30
0.0
 10
33.118928
 20
48.318884
 30
0.0
 10
33.168344
 20
48.401371
 30
0.0
 10
33.264436
 20
48.543634
 30
0.0
 10
33.175131
 20
48.705880
 30
0.0
 10
33.262155
 20
48.808795
 30
0.0
 10
33.319507
 20
48.931763
 30
0.0
 10
33.220886
 20
49.048548
 30
0.0
 10
33.278976
 20
49.158420
 30
0.0
 10
33.300052
 20
49.271746
 30
0.0
 10
33.259801
 20
49.353710
 30
0.0
 10
33.239430
 20
49.395190
 30
0.0
 11
33.102572
 21
48.291583
 31
0.0
 11
33.152737
 21
48.374091
 31
0.0
 11
33.226366
 21
48.554862
 31
0.0
 11
33.208158
 21
48.733766
 31
0.0
 11
33.244250
 21
48.790905
 31
0.0
 11
33.288412
 21
48.924562
 31
0.0
 11
33.244474
 21
49.078097
 31
0.0
 11
33.265733
 21
49.137963
 31
0.0
 11
33.285872
 21
49.268296
 31
0.0
 11
33.239430
 21
49.395190
 31
0.0
  0
SPLINE
  5
141
100
AcDbEntity
  8
leaves
 62
7
100
AcDbSpline
 70
0
 71
3
 72
13
 73
9
 74
7
 40
0.000000
 40
0.000000
 40
0.000000
 40
0.000000
 40
0.612501
 40
1.131861
 40
1.644848
 40
1.967457
 40
2.321801
 40
2.559408
 40
2.559408
 40
2.559408
 40
2.559408
 10
33.239430
 20
49.395190
 30
0.0
 10
33.205608
 20
49.599390
 30
0.0
 10
33.143106
 20
49.976739
 30
0.0
 10
32.774239
 20
50.422414
 30
0.0
 10
32.329797
 20
50.575806
 30
0.0
 10
31.932942
 20
50.583327
 30
0.0
 10
31.628108
 20
50.585094
 30
0.0
 10
31.430844
 20
50.579903
 30
0.0
 10
31.351663
 20
50.577819
 30
0.0
 11
33.239430
 21
49.395190
 31
0.0
 11
33.081936
 21
49.987096
 31
0.0
 11
32.745700
 21
50.382925
 31
0.0
 11
32.265619
 21
50.563696
 31
0.0
 11
31.943556
 21
50.582452
 31
0.0
 11
31.589212
 21
50.583050
 31
0.0
 11
31.351663
 21
50.577819
 31
0.0
  0
LWPOLYLINE
  5
142
100
AcDbEntity
  8
leaves
 62
7
100
AcDbPolyline
 90
2
 70
0
 10
33.105599
 20
48.317475
 30
0.0
 10
33.102572
 20
48.291583
 30
0.0
  0
SPLINE
  5
143
100
AcDbEntity
  8
leaves
 62
7
100
AcDbSpline
 70
0
 71
3
 72
10
 73
6
 74
4
 40
0.000000
 40
0.000000
 40
0.000000
 40
0.000000
 40
0.890412
 40
1.927679
 40
3.043961
 40
3.043961
 40
3.043961
 40
3.043961
 10
31.351663
 20
50.577819
 30
0.0
 10
31.623301
 20
50.452852
 30
0.0
 10
32.211379
 20
50.182307
 30
0.0
 10
32.881045
 20
49.350327
 30
0.0
 10
33.019637
 20
48.638630
 30
0.0
 10
33.091476
 20
48.269726
 30
0.0
 11
31.351663
 21
50.577819
 31
0.0
 11
32.131588
 21
50.148228
 31
0.0
 11
32.785902
 21
49.343369
 31
0.0
 11
33.091476
 21
48.269726
 31
0.0
  0
LWPOLYLINE
  5
144
100
AcDbEntity
  8
leaves
 62
7
100
AcDbPolyline
 90
61
 70
0
 10
33.082464
 20
48.240269
 30
0.0
 10
33.084734
 20
48.247588
 30
0.0
 10
33.087004
 20
48.254939
 30
0.0
 10
33.089274
 20
48.262352
 30
0.0
 10
33.091543
 20
48.269860
 30
0.0
 10
32.903768
 20
49.096084
 30
0.0
 10
32.488418
 20
49.786060
 30
0.0
 10
31.939593
 20
50.294959
 30
0.0
 10
31.351394
 20
50.577954
 30
0.0
 10
31.344086
 20
50.577702
 30
0.0
 10
31.337818
 20
50.577449
 30
0.0
 10
31.332622
 20
50.577197
 30
0.0
 10
31.328529
 20
50.576945
 30
0.0
 10
31.328529
 20
50.577702
 30
0.0
 10
31.328529
 20
50.578458
 30
0.0
 10
31.328529
 20
50.579215
 30
0.0
 10
31.328529
 20
50.579971
 30
0.0
 10
31.264387
 20
50.594599
 30
0.0
 10
31.200245
 20
50.609226
 30
0.0
 10
31.136103
 20
50.623853
 30
0.0
 10
31.071962
 20
50.638481
 30
0.0
 10
31.119122
 20
50.566185
 30
0.0
 10
31.166283
 20
50.493889
 30
0.0
 10
31.213443
 20
50.421593
 30
0.0
 10
31.260604
 20
50.349296
 30
0.0
 10
31.221598
 20
50.199251
 30
0.0
 10
31.181330
 20
50.036154
 30
0.0
 10
31.144468
 20
49.874444
 30
0.0
 10
31.115676
 20
49.728559
 30
0.0
 10
31.097402
 20
49.649286
 30
0.0
 10
31.074652
 20
49.508981
 30
0.0
 10
31.072834
 20
49.366911
 30
0.0
 10
31.117357
 20
49.282341
 30
0.0
 10
31.120756
 20
49.267724
 30
0.0
 10
31.124376
 20
49.253171
 30
0.0
 10
31.128185
 20
49.238743
 30
0.0
 10
31.132152
 20
49.224504
 30
0.0
 10
31.134926
 20
49.157342
 30
0.0
 10
31.148293
 20
49.085923
 30
0.0
 10
31.178304
 20
49.028312
 30
0.0
 10
31.231013
 20
49.002572
 30
0.0
 10
31.235300
 20
48.995963
 30
0.0
 10
31.239588
 20
48.989290
 30
0.0
 10
31.243875
 20
48.982617
 30
0.0
 10
31.248162
 20
48.976008
 30
0.0
 10
31.265685
 20
48.909959
 30
0.0
 10
31.300577
 20
48.832971
 30
0.0
 10
31.357347
 20
48.773195
 30
0.0
 10
31.440503
 20
48.758783
 30
0.0
 10
31.441712
 20
48.757775
 30
0.0
 10
31.442857
 20
48.756766
 30
0.0
 10
31.444003
 20
48.755757
 30
0.0
 10
31.445211
 20
48.754748
 30
0.0
 10
31.472564
 20
48.707430
 30
0.0
 10
31.527595
 20
48.637730
 30
0.0
 10
31.606080
 20
48.582152
 30
0.0
 10
31.703796
 20
48.577203
 30
0.0
 10
32.030147
 20
48.432301
 30
0.0
 10
32.383547
 20
48.331438
 30
0.0
 10
32.741738
 20
48.269225
 30
0.0
 10
33.082464
 20
48.240269
 30
0.0
  0
SPLINE
  5
145
100
AcDbEntity
  8
leaves
 62
7
100
AcDbSpline
 70
0
 71
3
 72
10
 73
6
 74
4
 40
0.000000
 40
0.000000
 40
0.000000
 40
0.000000
 40
0.016639
 40
0.033150
 40
0.049596
 40
0.049596
 40
0.049596
 40
0.049596
 10
45.605572
 20
49.608841
 30
0.0
 10
45.610361
 20
49.611638
 30
0.0
 10
45.619903
 20
49.617211
 30
0.0
 10
45.634126
 20
49.625639
 30
0.0
 10
45.643566
 20
49.631257
 30
0.0
 10
45.648277
 20
49.634061
 30
0.0
 11
45.605572
 21
49.608841
 31
0.0
 11
45.619931
 21
49.617248
 31
0.0
 11
45.634141
 21
49.625654
 31
0.0
 11
45.648277
 21
49.634061
 31
0.0
  0
SPLINE
  5
146
100
AcDbEntity
  8
leaves
 62
7
100
AcDbSpline
 70
0
 71
3
 72
16
 73
12
 74
10
 40
0.000000
 40
0.000000
 40
0.000000
 40
0.000000
 40
0.096592
 40
0.291827
 40
0.471579
 40
0.539174
 40
0.679999
 40
0.839917
 40
0.903459
 40
1.035346
 40
1.170511
 40
1.170511
 40
1.170511
 40
1.170511
 10
45.628437
 20
49.617248
 30
0.0
 10
45.659005
 20
49.626143
 30
0.0
 10
45.751358
 20
49.653017
 30
0.0
 10
45.918545
 20
49.691915
 30
0.0
 10
45.963589
 20
49.871472
 30
0.0
 10
46.097374
 20
49.887713
 30
0.0
 10
46.223148
 20
49.938917
 30
0.0
 10
46.230182
 20
50.091844
 30
0.0
 10
46.347660
 20
50.132734
 30
0.0
 10
46.440293
 20
50.201389
 30
0.0
 10
46.466557
 20
50.288870
 30
0.0
 10
46.479849
 20
50.333147
 30
0.0
 11
45.628437
 21
49.617248
 31
0.0
 11
45.721357
 21
49.643626
 31
0.0
 11
45.898343
 21
49.726047
 31
0.0
 11
46.006731
 21
49.869443
 31
0.0
 11
46.072065
 21
49.886779
 31
0.0
 11
46.195385
 21
49.954779
 31
0.0
 11
46.267669
 21
50.097428
 31
0.0
 11
46.324024
 21
50.126782
 31
0.0
 11
46.427530
 21
50.208519
 31
0.0
 11
46.479849
 21
50.333147
 31
0.0
  0
SPLINE
  5
147
100
AcDbEntity
  8
leaves
 62
7
100
AcDbSpline
 70
0
 71
3
 72
13
 73
9
 74
7
 40
0.000000
 40
0.000000
 40
0.000000
 40
0.000000
 40
0.612268
 40
1.131648
 40
1.644791
 40
1.967474
 40
2.321909
 40
2.559499
 40
2.559499
 40
2.559499
 40
2.559499
 10
46.479849
 20
50.333147
 30
0.0
 10
46.593990
 20
50.505731
 30
0.0
 10
46.804956
 20
50.824717
 30
0.0
 10
46.837718
 20
51.402256
 30
0.0
 10
46.616575
 20
51.817269
 30
0.0
 10
46.330647
 20
52.092762
 30
0.0
 10
46.108374
 20
52.301445
 30
0.0
 10
45.960252
 20
52.431866
 30
0.0
 10
45.900808
 20
52.484206
 30
0.0
 11
46.479849
 21
50.333147
 31
0.0
 11
46.767116
 21
50.873842
 31
0.0
 11
46.790006
 21
51.392717
 31
0.0
 11
46.561224
 21
51.852036
 31
0.0
 11
46.337848
 21
52.084903
 31
0.0
 11
46.078454
 21
52.326438
 31
0.0
 11
45.900808
 21
52.484206
 31
0.0
  0
LWPOLYLINE
  5
148
100
AcDbEntity
  8
leaves
 62
7
100
AcDbPolyline
 90
2
 70
0
 10
45.648277
 20
49.634061
 30
0.0
 10
45.628437
 20
49.617248
 30
0.0
  0
SPLINE
  5
149
100
AcDbEntity
  8
leaves
 62
7
100
AcDbSpline
 70
0
 71
3
 72
10
 73
6
 74
4
 40
0.000000
 40
0.000000
 40
0.000000
 40
0.000000
 40
0.890551
 40
1.927881
 40
3.044124
 40
3.044124
 40
3.044124
 40
3.044124
 10
45.900808
 20
52.484206
 30
0.0
 10
46.014883
 20
52.207769
 30
0.0
 10
46.261833
 20
51.609332
 30
0.0
 10
46.186665
 20
50.543901
 30
0.0
 10
45.803944
 20
49.928050
 30
0.0
 10
45.605572
 20
49.608841
 30
0.0
 11
45.900808
 21
52.484206
 31
0.0
 11
46.180179
 21
51.638610
 31
0.0
 11
46.112155
 21
50.603513
 31
0.0
 11
45.605572
 21
49.608841
 31
0.0
  0
LWPOLYLINE
  5
14a
100
AcDbEntity
  8
leaves
 62
7
100
AcDbPolyline
 90
61
 70
0
 10
45.578907
 20
49.593407
 30
0.0
 10
45.585659
 20
49.597242
 30
0.0
 10
45.592316
 20
49.601141
 30
0.0
 10
45.598909
 20
49.605039
 30
0.0
 10
45.605472
 20
49.608875
 30
0.0
 10
46.030090
 20
50.342107
 30
0.0
 10
46.195231
 20
51.130412
 30
0.0
 10
46.139386
 20
51.876790
 30
0.0
 10
45.901045
 20
52.484240
 30
0.0
 10
45.895423
 20
52.488969
 30
0.0
 10
45.890621
 20
52.493067
 30
0.0
 10
45.886575
 20
52.496535
 30
0.0
 10
45.883223
 20
52.499372
 30
0.0
 10
45.883812
 20
52.499876
 30
0.0
 10
45.884400
 20
52.500381
 30
0.0
 10
45.884989
 20
52.500885
 30
0.0
 10
45.885577
 20
52.501389
 30
0.0
 10
45.848504
 20
52.555780
 30
0.0
 10
45.811432
 20
52.610170
 30
0.0
 10
45.774359
 20
52.664560
 30
0.0
 10
45.737286
 20
52.718950
 30
0.0
 10
45.722659
 20
52.633876
 30
0.0
 10
45.708031
 20
52.548802
 30
0.0
 10
45.693404
 20
52.463728
 30
0.0
 10
45.678777
 20
52.378654
 30
0.0
 10
45.548139
 20
52.295204
 30
0.0
 10
45.407666
 20
52.203084
 30
0.0
 10
45.270598
 20
52.109640
 30
0.0
 10
45.150175
 20
52.022218
 30
0.0
 10
45.082891
 20
51.976523
 30
0.0
 10
44.970780
 20
51.889185
 30
0.0
 10
44.872791
 20
51.786399
 30
0.0
 10
44.847876
 20
51.694364
 30
0.0
 10
44.840384
 20
51.681197
 30
0.0
 10
44.833081
 20
51.667967
 30
0.0
 10
44.826030
 20
51.654737
 30
0.0
 10
44.819294
 20
51.641571
 30
0.0
 10
44.775701
 20
51.590506
 30
0.0
 10
44.736868
 20
51.529134
 30
0.0
 10
44.719661
 20
51.466563
 30
0.0
 10
44.740946
 20
51.411905
 30
0.0
 10
44.739438
 20
51.404087
 30
0.0
 10
44.737961
 20
51.396269
 30
0.0
 10
44.736548
 20
51.388451
 30
0.0
 10
44.735229
 20
51.380632
 30
0.0
 10
44.703158
 20
51.320258
 30
0.0
 10
44.676384
 20
51.240118
 30
0.0
 10
44.677350
 20
51.157770
 30
0.0
 10
44.728504
 20
51.090776
 30
0.0
 10
44.728562
 20
51.089209
 30
0.0
 10
44.728714
 20
51.087581
 30
0.0
 10
44.728930
 20
51.085954
 30
0.0
 10
44.729176
 20
51.084387
 30
0.0
 10
44.716913
 20
51.031137
 30
0.0
 10
44.709757
 20
50.942611
 30
0.0
 10
44.729460
 20
50.848474
 30
0.0
 10
44.797774
 20
50.778390
 30
0.0
 10
44.938409
 20
50.450194
 30
0.0
 10
45.128696
 20
50.135837
 30
0.0
 10
45.348805
 20
49.846511
 30
0.0
 10
45.578907
 20
49.593407
 30
0.0
  0
SPLINE
  5
14b
100
AcDbEntity
  8
leaves
 62
7
100
AcDbSpline
 70
0
 71
3
 72
10
 73
6
 74
4
 40
0.000000
 40
0.000000
 40
0.000000
 40
0.000000
 40
0.016683
 40
0.033296
 40
0.049767
 40
0.049767
 40
0.049767
 40
0.049767
 10
19.809823
 20
45.126757
 30
0.0
 10
19.811615
 20
45.121493
 30
0.0
 10
19.815192
 20
45.110986
 30
0.0
 10
19.820557
 20
45.095289
 30
0.0
 10
19.824166
 20
45.084868
 30
0.0
 10
19.825963
 20
45.079680
 30
0.0
 11
19.809823
 21
45.126757
 31
0.0
 11
19.815203
 21
45.110965
 31
0.0
 11
19.820583
 21
45.095248
 31
0.0
 11
19.825963
 21
45.079680
 31
0.0
  0
SPLINE
  5
14c
100
AcDbEntity
  8
leaves
 62
7
100
AcDbSpline
 70
0
 71
3
 72
16
 73
12
 74
10
 40
0.000000
 40
0.000000
 40
0.000000
 40
0.000000
 40
0.096561
 40
0.291717
 40
0.471435
 40
0.539059
 40
0.679951
 40
0.839870
 40
0.903384
 40
1.035185
 40
1.170250
 40
1.170250
 40
1.170250
 40
1.170250
 10
19.813522
 20
45.102546
 30
0.0
 10
19.816090
 20
45.070826
 30
0.0
 10
19.823849
 20
44.974995
 30
0.0
 10
19.828364
 20
44.803414
 30
0.0
 10
19.995351
 20
44.723398
 30
0.0
 10
19.984365
 20
44.589034
 30
0.0
 10
20.009239
 20
44.455527
 30
0.0
 10
20.157537
 20
44.417755
 30
0.0
 10
20.174021
 20
44.294527
 30
0.0
 10
20.222660
 20
44.190039
 30
0.0
 10
20.303095
 20
44.146880
 30
0.0
 10
20.343805
 20
44.125036
 30
0.0
 11
19.813522
 21
45.102546
 31
0.0
 11
19.820683
 21
45.006251
 31
0.0
 11
19.865879
 21
44.816401
 31
0.0
 11
19.984678
 21
44.681548
 31
0.0
 11
19.988539
 21
44.614034
 31
0.0
 11
20.030360
 21
44.479492
 31
0.0
 11
20.155499
 21
44.379922
 31
0.0
 11
20.172935
 21
44.318847
 31
0.0
 11
20.232216
 21
44.201131
 31
0.0
 11
20.343805
 21
44.125036
 31
0.0
  0
SPLINE
  5
14d
100
AcDbEntity
  8
leaves
 62
7
100
AcDbSpline
 70
0
 71
3
 72
13
 73
9
 74
7
 40
0.000000
 40
0.000000
 40
0.000000
 40
0.000000
 40
0.612463
 40
1.131873
 40
1.645047
 40
1.967644
 40
2.322037
 40
2.559828
 40
2.559828
 40
2.559828
 40
2.559828
 10
20.343805
 20
44.125036
 30
0.0
 10
20.489996
 20
43.978510
 30
0.0
 10
20.760168
 20
43.707719
 30
0.0
 10
21.319481
 20
43.559703
 30
0.0
 10
21.770420
 20
43.693084
 30
0.0
 10
22.097641
 20
43.917922
 30
0.0
 10
22.346699
 20
44.093816
 30
0.0
 10
22.504237
 20
44.212780
 30
0.0
 10
22.567497
 20
44.260549
 30
0.0
 11
20.343805
 21
44.125036
 31
0.0
 11
20.815952
 21
43.734924
 31
0.0
 11
21.319708
 21
43.608366
 31
0.0
 11
21.815618
 21
43.740354
 31
0.0
 11
22.088487
 21
43.912432
 31
0.0
 11
22.377123
 21
44.118062
 31
0.0
 11
22.567497
 21
44.260549
 31
0.0
  0
LWPOLYLINE
  5
14e
100
AcDbEntity
  8
leaves
 62
7
100
AcDbPolyline
 90
2
 70
0
 10
19.825963
 20
45.079680
 30
0.0
 10
19.813522
 20
45.102546
 30
0.0
  0
LWPOLYLINE
  5
14f
100
AcDbEntity
  8
leaves
 62
7
100
AcDbPolyline
 90
61
 70
0
 10
19.800004
 20
45.155978
 30
0.0
 10
19.802474
 20
45.148664
 30
0.0
 10
19.804880
 20
45.141350
 30
0.0
 10
19.807286
 20
45.134037
 30
0.0
 10
19.809756
 20
45.126723
 30
0.0
 10
20.442935
 20
44.563623
 30
0.0
 10
21.182036
 20
44.243702
 30
0.0
 10
21.924415
 20
44.148740
 30
0.0
 10
22.567430
 20
44.260515
 30
0.0
 10
22.573293
 20
44.264992
 30
0.0
 10
22.578274
 20
44.268838
 30
0.0
 10
22.582372
 20
44.272052
 30
0.0
 10
22.585588
 20
44.274638
 30
0.0
 10
22.586008
 20
44.273966
 30
0.0
 10
22.586428
 20
44.273293
 30
0.0
 10
22.586849
 20
44.272621
 30
0.0
 10
22.587269
 20
44.271948
 30
0.0
 10
22.647964
 20
44.297336
 30
0.0
 10
22.708659
 20
44.322724
 30
0.0
 10
22.769354
 20
44.348111
 30
0.0
 10
22.830049
 20
44.373499
 30
0.0
 10
22.749683
 20
44.404939
 30
0.0
 10
22.669317
 20
44.436380
 30
0.0
 10
22.588950
 20
44.467820
 30
0.0
 10
22.508584
 20
44.499261
 30
0.0
 10
22.453101
 20
44.643947
 30
0.0
 10
22.391061
 20
44.800046
 30
0.0
 10
22.327003
 20
44.953118
 30
0.0
 10
22.265468
 20
45.088726
 30
0.0
 10
22.234300
 20
45.163701
 30
0.0
 10
22.171230
 20
45.291070
 30
0.0
 10
22.090129
 20
45.407721
 30
0.0
 10
22.004866
 20
45.450542
 30
0.0
 10
21.993506
 20
45.460509
 30
0.0
 10
21.982084
 20
45.470255
 30
0.0
 10
21.970535
 20
45.479813
 30
0.0
 10
21.958798
 20
45.489212
 30
0.0
 10
21.917606
 20
45.542152
 30
0.0
 10
21.865317
 20
45.592444
 30
0.0
 10
21.807480
 20
45.621804
 30
0.0
 10
21.749644
 20
45.611947
 30
0.0
 10
21.742325
 20
45.614974
 30
0.0
 10
21.734974
 20
45.618000
 30
0.0
 10
21.727561
 20
45.621026
 30
0.0
 10
21.720053
 20
45.624053
 30
0.0
 10
21.667454
 20
45.667525
 30
0.0
 10
21.594333
 20
45.709799
 30
0.0
 10
21.513457
 20
45.725341
 30
0.0
 10
21.437594
 20
45.688615
 30
0.0
 10
21.436028
 20
45.688814
 30
0.0
 10
21.434399
 20
45.688951
 30
0.0
 10
21.432771
 20
45.689087
 30
0.0
 10
21.431205
 20
45.689287
 30
0.0
 10
21.381475
 20
45.711990
 30
0.0
 10
21.296154
 20
45.736742
 30
0.0
 10
21.199926
 20
45.736337
 30
0.0
 10
21.117474
 20
45.683571
 30
0.0
 10
20.767773
 20
45.611537
 30
0.0
 10
20.421666
 20
45.488119
 30
0.0
 10
20.094096
 20
45.330529
 30
0.0
 10
19.800004
 20
45.155978
 30
0.0
  0
LWPOLYLINE
  5
150
100
AcDbEntity
  8
leaves
 62
7
100
AcDbPolyline
 90
33
 70
0
 10
47.874059
 20
60.201790
 30
0.0
 10
47.856857
 20
60.213385
 30
0.0
 10
47.839592
 20
60.224950
 30
0.0
 10
47.822327
 20
60.236451
 30
0.0
 10
47.805125
 20
60.247857
 30
0.0
 10
47.815045
 20
60.243402
 30
0.0
 10
47.824965
 20
60.238946
 30
0.0
 10
47.834884
 20
60.234491
 30
0.0
 10
47.844804
 20
60.230036
 30
0.0
 10
47.782312
 20
60.303198
 30
0.0
 10
47.623797
 20
60.457222
 30
0.0
 10
47.412698
 20
60.593906
 30
0.0
 10
47.192458
 20
60.615054
 30
0.0
 10
47.150110
 20
60.667395
 30
0.0
 10
47.035256
 20
60.773517
 30
0.0
 10
46.866180
 20
60.857067
 30
0.0
 10
46.661166
 20
60.841694
 30
0.0
 10
46.611389
 20
60.880600
 30
0.0
 10
46.486143
 20
60.957746
 30
0.0
 10
46.321553
 20
61.013770
 30
0.0
 10
46.153749
 20
60.989312
 30
0.0
 10
45.369599
 20
61.056496
 30
0.0
 10
44.705054
 20
60.902851
 30
0.0
 10
44.180098
 20
60.547891
 30
0.0
 10
43.814719
 20
60.011130
 30
0.0
 10
43.674919
 20
59.648257
 30
0.0
 10
43.534867
 20
59.217260
 30
0.0
 10
43.417133
 20
58.820877
 30
0.0
 10
43.344291
 20
58.561846
 30
0.0
 10
44.083276
 20
59.359898
 30
0.0
 10
45.163041
 20
59.984565
 30
0.0
 10
46.465872
 20
60.307859
 30
0.0
 10
47.874059
 20
60.201790
 30
0.0
  0
SPLINE
  5
151
100
AcDbEntity
  8
leaves
 62
7
100
AcDbSpline
 70
0
 71
3
 72
10
 73
6
 74
4
 40
0.000000
 40
0.000000
 40
0.000000
 40
0.000000
 40
0.890595
 40
1.927857
 40
3.044137
 40
3.044137
 40
3.044137
 40
3.044137
 10
22.567497
 20
44.260549
 30
0.0
 10
22.273775
 20
44.204269
 30
0.0
 10
21.637960
 20
44.082440
 30
0.0
 10
20.609296
 20
44.369892
 30
0.0
 10
20.082754
 20
44.868372
 30
0.0
 10
19.809823
 20
45.126757
 30
0.0
 11
22.567497
 21
44.260549
 31
0.0
 11
21.682994
 21
44.156558
 31
0.0
 11
20.682668
 21
44.430897
 31
0.0
 11
19.809823
 21
45.126757
 31
0.0
  0
LWPOLYLINE
  5
152
100
AcDbEntity
  8
leaves
 62
7
100
AcDbPolyline
 90
61
 70
0
 10
47.916595
 20
60.172972
 30
0.0
 10
47.906003
 20
60.180233
 30
0.0
 10
47.895411
 20
60.187431
 30
0.0
 10
47.884818
 20
60.194629
 30
0.0
 10
47.874226
 20
60.201891
 30
0.0
 10
46.465898
 20
60.307818
 30
0.0
 10
45.163082
 20
59.984540
 30
0.0
 10
44.083397
 20
59.359952
 30
0.0
 10
43.344458
 20
58.561947
 30
0.0
 10
43.341163
 20
58.550157
 30
0.0
 10
43.338372
 20
58.540006
 30
0.0
 10
43.336086
 20
58.531494
 30
0.0
 10
43.334303
 20
58.524622
 30
0.0
 10
43.333126
 20
58.525127
 30
0.0
 10
43.331950
 20
58.525631
 30
0.0
 10
43.330773
 20
58.526135
 30
0.0
 10
43.329596
 20
58.526640
 30
0.0
 10
43.274785
 20
58.431562
 30
0.0
 10
43.219975
 20
58.336484
 30
0.0
 10
43.165164
 20
58.241407
 30
0.0
 10
43.110354
 20
58.146329
 30
0.0
 10
43.248641
 20
58.185924
 30
0.0
 10
43.386928
 20
58.225518
 30
0.0
 10
43.525215
 20
58.265113
 30
0.0
 10
43.663503
 20
58.304708
 30
0.0
 10
43.883449
 20
58.169242
 30
0.0
 10
44.123574
 20
58.025233
 30
0.0
 10
44.363129
 20
57.887214
 30
0.0
 10
44.581562
 20
57.769717
 30
0.0
 10
44.698832
 20
57.701939
 30
0.0
 10
44.911181
 20
57.596963
 30
0.0
 10
45.136518
 20
57.524394
 30
0.0
 10
45.292753
 20
57.553838
 30
0.0
 10
45.317910
 20
57.552015
 30
0.0
 10
45.342940
 20
57.550603
 30
0.0
 10
45.367844
 20
57.549631
 30
0.0
 10
45.392623
 20
57.549133
 30
0.0
 10
45.500988
 20
57.520525
 30
0.0
 10
45.621238
 20
57.506638
 30
0.0
 10
45.727554
 20
57.526105
 30
0.0
 10
45.794118
 20
57.597552
 30
0.0
 10
45.806980
 20
57.601035
 30
0.0
 10
45.819842
 20
57.604487
 30
0.0
 10
45.832704
 20
57.608002
 30
0.0
 10
45.845565
 20
57.611674
 30
0.0
 10
45.959258
 20
57.607282
 30
0.0
 10
46.098896
 20
57.625209
 30
0.0
 10
46.221825
 20
57.686387
 30
0.0
 10
46.285394
 20
57.811750
 30
0.0
 10
46.287658
 20
57.813064
 30
0.0
 10
46.289890
 20
57.814440
 30
0.0
 10
46.292059
 20
57.815815
 30
0.0
 10
46.294134
 20
57.817130
 30
0.0
 10
46.383007
 20
57.837384
 30
0.0
 10
46.521152
 20
57.890897
 30
0.0
 10
46.648264
 20
57.988733
 30
0.0
 10
46.704039
 20
58.141958
 30
0.0
 10
47.094800
 20
58.590902
 30
0.0
 10
47.428723
 20
59.104378
 30
0.0
 10
47.703443
 20
59.644397
 30
0.0
 10
47.916595
 20
60.172972
 30
0.0
  0
ENDSEC
  0
SECTION
  2
OBJECTS
  0
DICTIONARY
  5
C
330
0
100
AcDbDictionary
  3
ACAD_GROUP
350
D
  3
ACAD_MLINESTYLE
350
17
  0
DICTIONARY
  5
D
330
C
100
AcDbDictionary
  0
DICTIONARY
  5
1A
330
C
100
AcDbDictionary
  0
DICTIONARY
  5
17
330
C
100
AcDbDictionary
  3
STANDARD
350
18
  0
DICTIONARY
  5
19
330
C
100
AcDbDictionary
  0
ENDSEC
  0
EOF
