  0
SECTION
  2
HEADER
  9
$ACADVER
  1
AC1014
  9
$HANDSEED
  5
FFFF
  9
$MEASUREMENT
 70
     1
  0
ENDSEC
  0
SECTION
  2
TABLES
  0
TABLE
  2
VPORT
  5
8
330
0
100
AcDbSymbolTable
 70
     4
  0
VPORT
  5
2E
330
8
100
AcDbSymbolTableRecord
100
AcDbViewportTableRecord
  2
*ACTIVE
 70
     0
 10
0.0
 20
0.0
 11
1.0
 21
1.0
 12
210.0
 22
148.5
 13
0.0
 23
0.0
 14
10.0
 24
10.0
 15
10.0
 25
10.0
 16
0.0
 26
0.0
 36
1.0
 17
0.0
 27
0.0
 37
0.0
 40
341.0
 41
1.24
 42
50.0
 43
0.0
 44
0.0
 50
0.0
 51
0.0
 71
     0
 72
   100
 73
     1
 74
     3
 75
     0
 76
     0
 77
     0
 78
     0
  0
ENDTAB
  0
TABLE
  2
LTYPE
  5
5
330
0
100
AcDbSymbolTable
 70
     1
  0
LTYPE
  5
14
330
5
100
AcDbSymbolTableRecord
100
AcDbLinetypeTableRecord
  2
BYBLOCK
 70
     0
  3

 72
    65
 73
     0
 40
0.0
  0
LTYPE
  5
15
330
5
100
AcDbSymbolTableRecord
100
AcDbLinetypeTableRecord
  2
BYLAYER
 70
     0
  3

 72
    65
 73
     0
 40
0.0
  0
LTYPE
  5
16
330
5
100
AcDbSymbolTableRecord
100
AcDbLinetypeTableRecord
  2
CONTINUOUS
 70
     0
  3
Solid line
 72
    65
 73
     0
 40
0.0
  0
ENDTAB
  0
TABLE
  2
LAYER
  5
2
100
AcDbSymbolTable
 70
9
  0
LAYER
  5
50
100
AcDbSymbolTableRecord
100
AcDbLayerTableRecord
  2
0
 70
0
  6
CONTINUOUS
  0
LAYER
  5
51
100
AcDbSymbolTableRecord
100
AcDbLayerTableRecord
  2
Sticker_Constructor_Spec_link
 70
0
  6
CONTINUOUS
  0
LAYER
  5
52
100
AcDbSymbolTableRecord
100
AcDbLayerTableRecord
  2
Artwork
 70
0
  6
CONTINUOUS
  0
LAYER
  5
53
100
AcDbSymbolTableRecord
100
AcDbLayerTableRecord
  2
Background
 70
0
  6
CONTINUOUS
  0
LAYER
  5
54
100
AcDbSymbolTableRecord
100
AcDbLayerTableRecord
  2
logos
 70
0
  6
CONTINUOUS
  0
LAYER
  5
55
100
AcDbSymbolTableRecord
100
AcDbLayerTableRecord
  2
Mockup_Preview
 70
0
  6
CONTINUOUS
  0
LAYER
  5
56
100
AcDbSymbolTableRecord
100
AcDbLayerTableRecord
  2
Mockup_warning
 70
0
  6
CONTINUOUS
  0
LAYER
  5
57
100
AcDbSymbolTableRecord
100
AcDbLayerTableRecord
  2
Die-Cut_Shape
 70
0
  6
CONTINUOUS
  0
LAYER
  5
58
100
AcDbSymbolTableRecord
100
AcDbLayerTableRecord
  2
Template_text
 70
0
  6
CONTINUOUS
  0
ENDTAB
  0
TABLE
  2
STYLE
  5
3
330
0
100
AcDbSymbolTable
 70
     1
  0
STYLE
  5
11
330
3
100
AcDbSymbolTableRecord
100
AcDbTextStyleTableRecord
  2
STANDARD
 70
     0
 40
0.0
 41
1.0
 50
0.0
 71
     0
 42
2.5
  3
txt
  4

  0
ENDTAB
  0
TABLE
  2
VIEW
  5
6
330
0
100
AcDbSymbolTable
 70
     0
  0
ENDTAB
  0
TABLE
  2
UCS
  5
7
330
0
100
AcDbSymbolTable
 70
     0
  0
ENDTAB
  0
TABLE
  2
APPID
  5
9
330
0
100
AcDbSymbolTable
 70
     2
  0
APPID
  5
12
330
9
100
AcDbSymbolTableRecord
100
AcDbRegAppTableRecord
  2
ACAD
 70
     0
  0
ENDTAB
  0
TABLE
  2
DIMSTYLE
  5
A
330
0
100
AcDbSymbolTable
 70
     1
  0
DIMSTYLE
105
27
330
A
100
AcDbSymbolTableRecord
100
AcDbDimStyleTableRecord
  2
ISO-25
 70
     0
  3

  4

  5

  6

  7

 40
1.0
 41
2.5
 42
0.625
 43
3.75
 44
1.25
 45
0.0
 46
0.0
 47
0.0
 48
0.0
140
2.5
141
2.5
142
0.0
143
0.03937007874016
144
1.0
145
0.0
146
1.0
147
0.625
 71
     0
 72
     0
 73
     0
 74
     0
 75
     0
 76
     0
 77
     1
 78
     8
170
     0
171
     3
172
     1
173
     0
174
     0
175
     0
176
     0
177
     0
178
     0
270
     2
271
     2
272
     2
273
     2
274
     3
340
11
275
     0
280
     0
281
     0
282
     0
283
     0
284
     8
285
     0
286
     0
287
     3
288
     0
  0
ENDTAB
  0
TABLE
  2
BLOCK_RECORD
  5
1
330
0
100
AcDbSymbolTable
 70
     1
  0
BLOCK_RECORD
  5
1F
330
1
100
AcDbSymbolTableRecord
100
AcDbBlockTableRecord
  2
*MODEL_SPACE
  0
BLOCK_RECORD
  5
1B
330
1
100
AcDbSymbolTableRecord
100
AcDbBlockTableRecord
  2
*PAPER_SPACE
  0
ENDTAB
  0
ENDSEC
  0
SECTION
  2
BLOCKS
  0
BLOCK
  5
20
330
1F
100
AcDbEntity
  8
0
100
AcDbBlockBegin
  2
*MODEL_SPACE
 70
     0
 10
0.0
 20
0.0
 30
0.0
  3
*MODEL_SPACE
  1

  0
ENDBLK
  5
21
330
1F
100
AcDbEntity
  8
0
100
AcDbBlockEnd
  0
BLOCK
  5
1C
330
1B
100
AcDbEntity
 67
     1
  8
0
100
AcDbBlockBegin
  2
*PAPER_SPACE
  1

  0
ENDBLK
  5
1D
330
1B
100
AcDbEntity
 67
     1
  8
0
100
AcDbBlockEnd
  0
ENDSEC
  0
SECTION
  2
ENTITIES
  0
LWPOLYLINE
  5
100
100
AcDbEntity
  8
logos
 62
7
100
AcDbPolyline
 90
17
 70
1
 10
39.990626
 20
54.553204
 30
0.0
 10
37.135934
 20
51.698512
 30
0.0
 10
32.282688
 20
51.698512
 30
0.0
 10
32.282688
 20
46.845269
 30
0.0
 10
29.403916
 20
43.969176
 30
0.0
 10
32.282688
 20
41.093082
 30
0.0
 10
32.282688
 20
36.266593
 30
0.0
 10
37.093127
 20
36.266593
 30
0.0
 10
39.977249
 20
33.385147
 30
0.0
 10
42.858689
 20
36.266593
 30
0.0
 10
47.736012
 20
36.266593
 30
0.0
 10
47.736012
 20
41.127863
 30
0.0
 10
50.577326
 20
43.969176
 30
0.0
 10
47.736012
 20
46.810488
 30
0.0
 10
47.736012
 20
51.719915
 30
0.0
 10
42.823908
 20
51.719915
 30
0.0
 10
39.990626
 20
54.553204
 30
0.0
  0
LWPOLYLINE
  5
101
100
AcDbEntity
  8
logos
 62
7
100
AcDbPolyline
 90
9
 70
1
 10
39.990626
 20
54.058248
 30
0.0
 10
42.328953
 20
51.719915
 30
0.0
 10
40.710312
 20
51.719915
 30
0.0
 10
40.710312
 20
45.836629
 30
0.0
 10
39.904342
 20
45.203221
 30
0.0
 10
39.295010
 20
46.117610
 30
0.0
 10
39.295010
 20
51.698512
 30
0.0
 10
37.630890
 20
51.698512
 30
0.0
 10
39.990626
 20
54.058248
 30
0.0
  0
LWPOLYLINE
  5
102
100
AcDbEntity
  8
logos
 62
7
100
AcDbPolyline
 90
5
 70
1
 10
41.060796
 20
51.369432
 30
0.0
 10
42.722576
 20
51.326290
 30
0.0
 10
44.461277
 20
49.587591
 30
0.0
 10
41.060796
 20
46.187110
 30
0.0
 10
41.060796
 20
51.369432
 30
0.0
  0
LWPOLYLINE
  5
103
100
AcDbEntity
  8
logos
 62
7
100
AcDbPolyline
 90
9
 70
1
 10
43.174392
 20
51.369432
 30
0.0
 10
47.382856
 20
51.369432
 30
0.0
 10
47.382856
 20
47.163646
 30
0.0
 10
45.609038
 20
48.934786
 30
0.0
 10
41.721627
 20
45.047378
 30
0.0
 10
41.060796
 20
45.535473
 30
0.0
 10
41.750820
 20
46.379995
 30
0.0
 10
44.958908
 20
49.587591
 30
0.0
 10
43.174392
 20
51.369432
 30
0.0
  0
LWPOLYLINE
  5
104
100
AcDbEntity
  8
logos
 62
7
100
AcDbPolyline
 90
9
 70
1
 10
32.633172
 20
51.345359
 30
0.0
 10
36.782775
 20
51.345359
 30
0.0
 10
35.025013
 20
49.587594
 30
0.0
 10
38.944530
 20
45.668080
 30
0.0
 10
38.456435
 20
45.047381
 30
0.0
 10
37.599109
 20
45.694510
 30
0.0
 10
34.364179
 20
48.929440
 30
0.0
 10
32.633172
 20
47.195755
 30
0.0
 10
32.633172
 20
51.345359
 30
0.0
  0
LWPOLYLINE
  5
105
100
AcDbEntity
  8
logos
 62
7
100
AcDbPolyline
 90
5
 70
1
 10
37.277731
 20
51.345359
 30
0.0
 10
38.944530
 20
51.345359
 30
0.0
 10
38.944530
 20
46.163036
 30
0.0
 10
35.519969
 20
49.587594
 30
0.0
 10
37.277731
 20
51.345359
 30
0.0
  0
LWPOLYLINE
  5
106
100
AcDbEntity
  8
logos
 62
7
100
AcDbPolyline
 90
5
 70
1
 10
45.609038
 20
48.439836
 30
0.0
 10
47.382856
 20
46.666021
 30
0.0
 10
47.382856
 20
45.047381
 30
0.0
 10
42.219259
 20
45.047381
 30
0.0
 10
45.609038
 20
48.439836
 30
0.0
  0
LWPOLYLINE
  5
107
100
AcDbEntity
  8
logos
 62
7
100
AcDbPolyline
 90
5
 70
1
 10
34.364179
 20
48.431821
 30
0.0
 10
37.748607
 20
45.047392
 30
0.0
 10
32.633172
 20
45.047392
 30
0.0
 10
32.633172
 20
46.700810
 30
0.0
 10
34.364179
 20
48.431821
 30
0.0
  0
LWPOLYLINE
  5
108
100
AcDbEntity
  8
logos
 62
7
100
AcDbPolyline
 90
9
 70
1
 10
32.282688
 20
46.350330
 30
0.0
 10
32.282688
 20
44.694233
 30
0.0
 10
38.101766
 20
44.694233
 30
0.0
 10
38.748552
 20
43.874880
 30
0.0
 10
37.797231
 20
43.289631
 30
0.0
 10
32.282688
 20
43.289631
 30
0.0
 10
32.282688
 20
41.588054
 30
0.0
 10
29.901549
 20
43.969190
 30
0.0
 10
32.282688
 20
46.350330
 30
0.0
  0
LWPOLYLINE
  5
109
100
AcDbEntity
  8
logos
 62
7
100
AcDbPolyline
 90
9
 70
1
 10
47.736012
 20
46.312873
 30
0.0
 10
50.079695
 20
43.969190
 30
0.0
 10
47.736012
 20
41.625511
 30
0.0
 10
47.736012
 20
43.289631
 30
0.0
 10
41.820620
 20
43.289631
 30
0.0
 10
41.270484
 20
44.098616
 30
0.0
 10
42.232173
 20
44.694233
 30
0.0
 10
47.736012
 20
44.694233
 30
0.0
 10
47.736012
 20
46.312873
 30
0.0
  0
LWPOLYLINE
  5
10a
100
AcDbEntity
  8
logos
 62
7
100
AcDbPolyline
 90
13
 70
1
 10
40.710312
 20
45.339015
 30
0.0
 10
41.191950
 20
44.694233
 30
0.0
 10
40.680213
 20
44.005976
 30
0.0
 10
41.200964
 20
43.289631
 30
0.0
 10
40.710312
 20
42.688645
 30
0.0
 10
40.057174
 20
43.207029
 30
0.0
 10
39.305712
 20
42.679109
 30
0.0
 10
38.824074
 20
43.289631
 30
0.0
 10
39.332467
 20
43.961164
 30
0.0
 10
38.660408
 20
44.694233
 30
0.0
 10
39.295010
 20
45.175871
 30
0.0
 10
39.953838
 20
44.658783
 30
0.0
 10
40.710312
 20
45.339015
 30
0.0
  0
LWPOLYLINE
  5
10b
100
AcDbEntity
  8
logos
 62
7
100
AcDbPolyline
 90
5
 70
1
 10
32.633172
 20
42.939151
 30
0.0
 10
37.812819
 20
42.939151
 30
0.0
 10
34.372205
 20
39.498535
 30
0.0
 10
32.633172
 20
41.237571
 30
0.0
 10
32.633172
 20
42.939151
 30
0.0
  0
LWPOLYLINE
  5
10c
100
AcDbEntity
  8
logos
 62
7
100
AcDbPolyline
 90
9
 70
1
 10
38.307774
 20
42.939151
 30
0.0
 10
38.955232
 20
42.451055
 30
0.0
 10
38.308102
 20
41.620485
 30
0.0
 10
35.025013
 20
38.337395
 30
0.0
 10
36.742643
 20
36.617090
 30
0.0
 10
32.633172
 20
36.617090
 30
0.0
 10
32.633172
 20
40.742616
 30
0.0
 10
34.372205
 20
39.003580
 30
0.0
 10
38.307774
 20
42.939151
 30
0.0
  0
LWPOLYLINE
  5
10d
100
AcDbEntity
  8
logos
 62
7
100
AcDbPolyline
 90
9
 70
1
 10
41.060796
 20
42.939151
 30
0.0
 10
42.018604
 20
42.594015
 30
0.0
 10
45.609038
 20
39.003580
 30
0.0
 10
47.382856
 20
40.774722
 30
0.0
 10
47.382856
 20
36.617090
 30
0.0
 10
43.209170
 20
36.617090
 30
0.0
 10
44.926803
 20
38.337395
 30
0.0
 10
41.060796
 20
42.203406
 30
0.0
 10
41.060796
 20
42.939151
 30
0.0
  0
LWPOLYLINE
  5
10e
100
AcDbEntity
  8
logos
 62
7
100
AcDbPolyline
 90
5
 70
1
 10
42.171100
 20
42.939151
 30
0.0
 10
47.382856
 20
42.939151
 30
0.0
 10
47.382856
 20
41.272352
 30
0.0
 10
45.609038
 20
39.498535
 30
0.0
 10
42.171100
 20
42.939151
 30
0.0
  0
LWPOLYLINE
  5
10f
100
AcDbEntity
  8
logos
 62
7
100
AcDbPolyline
 90
9
 70
1
 10
39.977249
 20
42.792000
 30
0.0
 10
40.710312
 20
41.936907
 30
0.0
 10
40.710312
 20
36.266610
 30
0.0
 10
42.361058
 20
36.266610
 30
0.0
 10
39.977249
 20
33.882795
 30
0.0
 10
37.590758
 20
36.266610
 30
0.0
 10
39.305712
 20
36.266610
 30
0.0
 10
39.305712
 20
42.120466
 30
0.0
 10
39.977249
 20
42.792000
 30
0.0
  0
LWPOLYLINE
  5
110
100
AcDbEntity
  8
logos
 62
7
100
AcDbPolyline
 90
5
 70
1
 10
38.955232
 20
41.769983
 30
0.0
 10
38.955232
 20
36.617090
 30
0.0
 10
37.240274
 20
36.617090
 30
0.0
 10
35.519969
 20
38.337395
 30
0.0
 10
38.955232
 20
41.769983
 30
0.0
  0
LWPOLYLINE
  5
111
100
AcDbEntity
  8
logos
 62
7
100
AcDbPolyline
 90
5
 70
1
 10
41.060796
 20
41.708448
 30
0.0
 10
44.431847
 20
38.337395
 30
0.0
 10
42.711539
 20
36.617090
 30
0.0
 10
41.060796
 20
36.617090
 30
0.0
 10
41.060796
 20
41.708448
 30
0.0
  0
ENDSEC
  0
SECTION
  2
OBJECTS
  0
DICTIONARY
  5
C
330
0
100
AcDbDictionary
  3
ACAD_GROUP
350
D
  3
ACAD_MLINESTYLE
350
17
  0
DICTIONARY
  5
D
330
C
100
AcDbDictionary
  0
DICTIONARY
  5
1A
330
C
100
AcDbDictionary
  0
DICTIONARY
  5
17
330
C
100
AcDbDictionary
  3
STANDARD
350
18
  0
DICTIONARY
  5
19
330
C
100
AcDbDictionary
  0
ENDSEC
  0
EOF
