  0
SECTION
  2
HEADER
  9
$ACADVER
  1
AC1014
  9
$HANDSEED
  5
FFFF
  9
$MEASUREMENT
 70
     1
  0
ENDSEC
  0
SECTION
  2
TABLES
  0
TABLE
  2
VPORT
  5
8
330
0
100
AcDbSymbolTable
 70
     4
  0
VPORT
  5
2E
330
8
100
AcDbSymbolTableRecord
100
AcDbViewportTableRecord
  2
*ACTIVE
 70
     0
 10
0.0
 20
0.0
 11
1.0
 21
1.0
 12
210.0
 22
148.5
 13
0.0
 23
0.0
 14
10.0
 24
10.0
 15
10.0
 25
10.0
 16
0.0
 26
0.0
 36
1.0
 17
0.0
 27
0.0
 37
0.0
 40
341.0
 41
1.24
 42
50.0
 43
0.0
 44
0.0
 50
0.0
 51
0.0
 71
     0
 72
   100
 73
     1
 74
     3
 75
     0
 76
     0
 77
     0
 78
     0
  0
ENDTAB
  0
TABLE
  2
LTYPE
  5
5
330
0
100
AcDbSymbolTable
 70
     1
  0
LTYPE
  5
14
330
5
100
AcDbSymbolTableRecord
100
AcDbLinetypeTableRecord
  2
BYBLOCK
 70
     0
  3

 72
    65
 73
     0
 40
0.0
  0
LTYPE
  5
15
330
5
100
AcDbSymbolTableRecord
100
AcDbLinetypeTableRecord
  2
BYLAYER
 70
     0
  3

 72
    65
 73
     0
 40
0.0
  0
LTYPE
  5
16
330
5
100
AcDbSymbolTableRecord
100
AcDbLinetypeTableRecord
  2
CONTINUOUS
 70
     0
  3
Solid line
 72
    65
 73
     0
 40
0.0
  0
ENDTAB
  0
TABLE
  2
LAYER
  5
2
100
AcDbSymbolTable
 70
4
  0
LAYER
  5
50
100
AcDbSymbolTableRecord
100
AcDbLayerTableRecord
  2
0
 70
0
  6
CONTINUOUS
  0
LAYER
  5
51
100
AcDbSymbolTableRecord
100
AcDbLayerTableRecord
  2
Artwork
 70
0
  6
CONTINUOUS
  0
LAYER
  5
52
100
AcDbSymbolTableRecord
100
AcDbLayerTableRecord
  2
Background
 70
0
  6
CONTINUOUS
  0
LAYER
  5
53
100
AcDbSymbolTableRecord
100
AcDbLayerTableRecord
  2
logos
 70
0
  6
CONTINUOUS
  0
ENDTAB
  0
TABLE
  2
STYLE
  5
3
330
0
100
AcDbSymbolTable
 70
     1
  0
STYLE
  5
11
330
3
100
AcDbSymbolTableRecord
100
AcDbTextStyleTableRecord
  2
STANDARD
 70
     0
 40
0.0
 41
1.0
 50
0.0
 71
     0
 42
2.5
  3
txt
  4

  0
ENDTAB
  0
TABLE
  2
VIEW
  5
6
330
0
100
AcDbSymbolTable
 70
     0
  0
ENDTAB
  0
TABLE
  2
UCS
  5
7
330
0
100
AcDbSymbolTable
 70
     0
  0
ENDTAB
  0
TABLE
  2
APPID
  5
9
330
0
100
AcDbSymbolTable
 70
     2
  0
APPID
  5
12
330
9
100
AcDbSymbolTableRecord
100
AcDbRegAppTableRecord
  2
ACAD
 70
     0
  0
ENDTAB
  0
TABLE
  2
DIMSTYLE
  5
A
330
0
100
AcDbSymbolTable
 70
     1
  0
DIMSTYLE
105
27
330
A
100
AcDbSymbolTableRecord
100
AcDbDimStyleTableRecord
  2
ISO-25
 70
     0
  3

  4

  5

  6

  7

 40
1.0
 41
2.5
 42
0.625
 43
3.75
 44
1.25
 45
0.0
 46
0.0
 47
0.0
 48
0.0
140
2.5
141
2.5
142
0.0
143
0.03937007874016
144
1.0
145
0.0
146
1.0
147
0.625
 71
     0
 72
     0
 73
     0
 74
     0
 75
     0
 76
     0
 77
     1
 78
     8
170
     0
171
     3
172
     1
173
     0
174
     0
175
     0
176
     0
177
     0
178
     0
270
     2
271
     2
272
     2
273
     2
274
     3
340
11
275
     0
280
     0
281
     0
282
     0
283
     0
284
     8
285
     0
286
     0
287
     3
288
     0
  0
ENDTAB
  0
TABLE
  2
BLOCK_RECORD
  5
1
330
0
100
AcDbSymbolTable
 70
     1
  0
BLOCK_RECORD
  5
1F
330
1
100
AcDbSymbolTableRecord
100
AcDbBlockTableRecord
  2
*MODEL_SPACE
  0
BLOCK_RECORD
  5
1B
330
1
100
AcDbSymbolTableRecord
100
AcDbBlockTableRecord
  2
*PAPER_SPACE
  0
ENDTAB
  0
ENDSEC
  0
SECTION
  2
BLOCKS
  0
BLOCK
  5
20
330
1F
100
AcDbEntity
  8
0
100
AcDbBlockBegin
  2
*MODEL_SPACE
 70
     0
 10
0.0
 20
0.0
 30
0.0
  3
*MODEL_SPACE
  1

  0
ENDBLK
  5
21
330
1F
100
AcDbEntity
  8
0
100
AcDbBlockEnd
  0
BLOCK
  5
1C
330
1B
100
AcDbEntity
 67
     1
  8
0
100
AcDbBlockBegin
  2
*PAPER_SPACE
  1

  0
ENDBLK
  5
1D
330
1B
100
AcDbEntity
 67
     1
  8
0
100
AcDbBlockEnd
  0
ENDSEC
  0
SECTION
  2
ENTITIES
  0
LWPOLYLINE
  5
100
100
AcDbEntity
  8
logos
 62
7
100
AcDbPolyline
 90
69
 70
1
 10
33.386306
 20
34.220476
 30
0.0
 10
33.378941
 20
34.240220
 30
0.0
 10
33.369617
 20
34.258531
 30
0.0
 10
33.358457
 20
34.275218
 30
0.0
 10
33.345586
 20
34.290090
 30
0.0
 10
33.330564
 20
34.304701
 30
0.0
 10
33.312957
 20
34.317769
 30
0.0
 10
33.292640
 20
34.329447
 30
0.0
 10
33.269490
 20
34.339894
 30
0.0
 10
33.247914
 20
34.347371
 30
0.0
 10
33.224009
 20
34.353848
 30
0.0
 10
33.197600
 20
34.359294
 30
0.0
 10
33.168513
 20
34.363661
 30
0.0
 10
33.138427
 20
34.366893
 30
0.0
 10
33.105739
 20
34.369195
 30
0.0
 10
33.070600
 20
34.370588
 30
0.0
 10
33.033156
 20
34.371056
 30
0.0
 10
32.865004
 20
34.371161
 30
0.0
 10
32.696852
 20
34.371267
 30
0.0
 10
32.528700
 20
34.371373
 30
0.0
 10
32.360548
 20
34.371478
 30
0.0
 10
32.360375
 20
34.136801
 30
0.0
 10
32.360210
 20
33.902123
 30
0.0
 10
32.360046
 20
33.667446
 30
0.0
 10
32.359881
 20
33.432769
 30
0.0
 10
32.417584
 20
33.432781
 30
0.0
 10
32.475287
 20
33.432793
 30
0.0
 10
32.532990
 20
33.432805
 30
0.0
 10
32.590693
 20
33.432817
 30
0.0
 10
32.590832
 20
33.512867
 30
0.0
 10
32.590971
 20
33.592917
 30
0.0
 10
32.591110
 20
33.672967
 30
0.0
 10
32.591249
 20
33.753017
 30
0.0
 10
32.684357
 20
33.752942
 30
0.0
 10
32.777464
 20
33.752867
 30
0.0
 10
32.870572
 20
33.752782
 30
0.0
 10
32.963680
 20
33.752707
 30
0.0
 10
33.010735
 20
33.753211
 30
0.0
 10
33.053416
 20
33.754592
 30
0.0
 10
33.092108
 20
33.756884
 30
0.0
 10
33.127195
 20
33.760098
 30
0.0
 10
33.160721
 20
33.764676
 30
0.0
 10
33.191827
 20
33.770309
 30
0.0
 10
33.220303
 20
33.776997
 30
0.0
 10
33.245942
 20
33.784736
 30
0.0
 10
33.271823
 20
33.794944
 30
0.0
 10
33.294990
 20
33.806671
 30
0.0
 10
33.315368
 20
33.819818
 30
0.0
 10
33.332879
 20
33.834291
 30
0.0
 10
33.348351
 20
33.850676
 30
0.0
 10
33.361798
 20
33.868631
 30
0.0
 10
33.373171
 20
33.888136
 30
0.0
 10
33.382416
 20
33.909173
 30
0.0
 10
33.388241
 20
33.928373
 30
0.0
 10
33.392810
 20
33.948381
 30
0.0
 10
33.396105
 20
33.969145
 30
0.0
 10
33.398090
 20
33.990611
 30
0.0
 10
33.398874
 20
34.009229
 30
0.0
 10
33.399427
 20
34.028693
 30
0.0
 10
33.399692
 20
34.048904
 30
0.0
 10
33.399858
 20
34.069769
 30
0.0
 10
33.399656
 20
34.089710
 30
0.0
 10
33.399425
 20
34.108858
 30
0.0
 10
33.399151
 20
34.127149
 30
0.0
 10
33.398793
 20
34.144523
 30
0.0
 10
33.397550
 20
34.164803
 30
0.0
 10
33.395058
 20
34.184208
 30
0.0
 10
33.391345
 20
34.202779
 30
0.0
 10
33.386306
 20
34.220476
 30
0.0
  0
LWPOLYLINE
  5
101
100
AcDbEntity
  8
logos
 62
7
100
AcDbPolyline
 90
53
 70
1
 10
33.168010
 20
34.009385
 30
0.0
 10
33.167257
 20
34.000747
 30
0.0
 10
33.165912
 20
33.993713
 30
0.0
 10
33.164014
 20
33.987912
 30
0.0
 10
33.161586
 20
33.982972
 30
0.0
 10
33.160530
 20
33.982403
 30
0.0
 10
33.156980
 20
33.980869
 30
0.0
 10
33.150354
 20
33.978662
 30
0.0
 10
33.140052
 20
33.976056
 30
0.0
 10
33.126645
 20
33.973670
 30
0.0
 10
33.111209
 20
33.971673
 30
0.0
 10
33.093708
 20
33.970076
 30
0.0
 10
33.074110
 20
33.968886
 30
0.0
 10
33.049464
 20
33.967897
 30
0.0
 10
33.022824
 20
33.967261
 30
0.0
 10
32.994366
 20
33.966886
 30
0.0
 10
32.964265
 20
33.966775
 30
0.0
 10
32.871064
 20
33.966905
 30
0.0
 10
32.777863
 20
33.967026
 30
0.0
 10
32.684661
 20
33.967156
 30
0.0
 10
32.591460
 20
33.967286
 30
0.0
 10
32.591549
 20
34.014748
 30
0.0
 10
32.591545
 20
34.062209
 30
0.0
 10
32.591634
 20
34.109671
 30
0.0
 10
32.591630
 20
34.157133
 30
0.0
 10
32.684738
 20
34.157104
 30
0.0
 10
32.777845
 20
34.157066
 30
0.0
 10
32.870952
 20
34.157037
 30
0.0
 10
32.964059
 20
34.157009
 30
0.0
 10
32.995972
 20
34.156673
 30
0.0
 10
33.025214
 20
34.156310
 30
0.0
 10
33.051769
 20
34.155828
 30
0.0
 10
33.075617
 20
34.155412
 30
0.0
 10
33.094906
 20
34.154542
 30
0.0
 10
33.112357
 20
34.153225
 30
0.0
 10
33.127910
 20
34.151488
 30
0.0
 10
33.141503
 20
34.149360
 30
0.0
 10
33.152390
 20
34.146796
 30
0.0
 10
33.159590
 20
34.144614
 30
0.0
 10
33.163532
 20
34.143331
 30
0.0
 10
33.164649
 20
34.143435
 30
0.0
 10
33.165598
 20
34.141582
 30
0.0
 10
33.166592
 20
34.138063
 30
0.0
 10
33.167484
 20
34.132607
 30
0.0
 10
33.168118
 20
34.124941
 30
0.0
 10
33.168702
 20
34.113001
 30
0.0
 10
33.169018
 20
34.099845
 30
0.0
 10
33.169135
 20
34.085554
 30
0.0
 10
33.169008
 20
34.070203
 30
0.0
 10
33.169083
 20
34.053426
 30
0.0
 10
33.168959
 20
34.037789
 30
0.0
 10
33.168638
 20
34.023182
 30
0.0
 10
33.168010
 20
34.009385
 30
0.0
  0
LWPOLYLINE
  5
102
100
AcDbEntity
  8
logos
 62
7
100
AcDbPolyline
 90
101
 70
1
 10
35.790399
 20
34.222285
 30
0.0
 10
35.781281
 20
34.242315
 30
0.0
 10
35.769729
 20
34.260767
 30
0.0
 10
35.755977
 20
34.277591
 30
0.0
 10
35.740259
 20
34.292737
 30
0.0
 10
35.723061
 20
34.306399
 30
0.0
 10
35.702865
 20
34.318600
 30
0.0
 10
35.679628
 20
34.329478
 30
0.0
 10
35.653304
 20
34.339175
 30
0.0
 10
35.628089
 20
34.346234
 30
0.0
 10
35.600126
 20
34.352363
 30
0.0
 10
35.569274
 20
34.357514
 30
0.0
 10
35.535394
 20
34.361658
 30
0.0
 10
35.499092
 20
34.364836
 30
0.0
 10
35.459761
 20
34.367120
 30
0.0
 10
35.417540
 20
34.368555
 30
0.0
 10
35.372569
 20
34.369181
 30
0.0
 10
35.213240
 20
34.369234
 30
0.0
 10
35.053910
 20
34.369287
 30
0.0
 10
34.894580
 20
34.369340
 30
0.0
 10
34.735251
 20
34.369393
 30
0.0
 10
34.735030
 20
34.134762
 30
0.0
 10
34.734809
 20
33.900131
 30
0.0
 10
34.734598
 20
33.665499
 30
0.0
 10
34.734377
 20
33.430868
 30
0.0
 10
34.792128
 20
33.430788
 30
0.0
 10
34.849878
 20
33.430707
 30
0.0
 10
34.907628
 20
33.430627
 30
0.0
 10
34.965378
 20
33.430546
 30
0.0
 10
34.965425
 20
33.510595
 30
0.0
 10
34.965471
 20
33.590644
 30
0.0
 10
34.965517
 20
33.670693
 30
0.0
 10
34.965563
 20
33.750742
 30
0.0
 10
35.063000
 20
33.750608
 30
0.0
 10
35.160438
 20
33.750473
 30
0.0
 10
35.257876
 20
33.750338
 30
0.0
 10
35.355313
 20
33.750213
 30
0.0
 10
35.384970
 20
33.750134
 30
0.0
 10
35.413311
 20
33.749762
 30
0.0
 10
35.440313
 20
33.749033
 30
0.0
 10
35.465945
 20
33.748058
 30
0.0
 10
35.484351
 20
33.746946
 30
0.0
 10
35.501540
 20
33.745253
 30
0.0
 10
35.517268
 20
33.743072
 30
0.0
 10
35.531288
 20
33.740501
 30
0.0
 10
35.541788
 20
33.737914
 30
0.0
 10
35.548656
 20
33.735450
 30
0.0
 10
35.552727
 20
33.733293
 30
0.0
 10
35.554839
 20
33.731610
 30
0.0
 10
35.555868
 20
33.728277
 30
0.0
 10
35.557065
 20
33.723094
 30
0.0
 10
35.558215
 20
33.715992
 30
0.0
 10
35.559050
 20
33.706894
 30
0.0
 10
35.559648
 20
33.693513
 30
0.0
 10
35.559977
 20
33.678995
 30
0.0
 10
35.560159
 20
33.663253
 30
0.0
 10
35.560235
 20
33.646200
 30
0.0
 10
35.560118
 20
33.592104
 30
0.0
 10
35.560002
 20
33.538008
 30
0.0
 10
35.559885
 20
33.483912
 30
0.0
 10
35.559768
 20
33.429816
 30
0.0
 10
35.617495
 20
33.429735
 30
0.0
 10
35.675222
 20
33.429654
 30
0.0
 10
35.732950
 20
33.429574
 30
0.0
 10
35.790677
 20
33.429493
 30
0.0
 10
35.790793
 20
33.483589
 30
0.0
 10
35.790910
 20
33.537685
 30
0.0
 10
35.791026
 20
33.591781
 30
0.0
 10
35.791143
 20
33.645878
 30
0.0
 10
35.790718
 20
33.670038
 30
0.0
 10
35.789843
 20
33.692535
 30
0.0
 10
35.788406
 20
33.713594
 30
0.0
 10
35.786292
 20
33.733443
 30
0.0
 10
35.782383
 20
33.755905
 30
0.0
 10
35.776836
 20
33.777250
 30
0.0
 10
35.769644
 20
33.797461
 30
0.0
 10
35.760797
 20
33.816522
 30
0.0
 10
35.756326
 20
33.824242
 30
0.0
 10
35.751475
 20
33.831699
 30
0.0
 10
35.746274
 20
33.838873
 30
0.0
 10
35.740769
 20
33.845745
 30
0.0
 10
35.747834
 20
33.853422
 30
0.0
 10
35.754625
 20
33.861571
 30
0.0
 10
35.761133
 20
33.870061
 30
0.0
 10
35.767350
 20
33.878782
 30
0.0
 10
35.778171
 20
33.898439
 30
0.0
 10
35.787262
 20
33.919747
 30
0.0
 10
35.794632
 20
33.942698
 30
0.0
 10
35.800273
 20
33.967280
 30
0.0
 10
35.803779
 20
33.990271
 30
0.0
 10
35.806322
 20
34.014684
 30
0.0
 10
35.807873
 20
34.040415
 30
0.0
 10
35.808445
 20
34.067357
 30
0.0
 10
35.808339
 20
34.087516
 30
0.0
 10
35.808053
 20
34.106981
 30
0.0
 10
35.807403
 20
34.125624
 30
0.0
 10
35.806576
 20
34.143314
 30
0.0
 10
35.804645
 20
34.164417
 30
0.0
 10
35.801280
 20
34.184589
 30
0.0
 10
35.796527
 20
34.203822
 30
0.0
 10
35.790399
 20
34.222285
 30
0.0
  0
LWPOLYLINE
  5
103
100
AcDbEntity
  8
logos
 62
7
100
AcDbPolyline
 90
53
 70
1
 10
35.371921
 20
33.964429
 30
0.0
 10
35.270457
 20
33.964515
 30
0.0
 10
35.168993
 20
33.964610
 30
0.0
 10
35.067528
 20
33.964705
 30
0.0
 10
34.966064
 20
33.964800
 30
0.0
 10
34.966153
 20
34.012309
 30
0.0
 10
34.966242
 20
34.059817
 30
0.0
 10
34.966330
 20
34.107326
 30
0.0
 10
34.966419
 20
34.154834
 30
0.0
 10
35.067860
 20
34.154739
 30
0.0
 10
35.169301
 20
34.154644
 30
0.0
 10
35.270741
 20
34.154549
 30
0.0
 10
35.372182
 20
34.154463
 30
0.0
 10
35.404151
 20
34.154314
 30
0.0
 10
35.433382
 20
34.153951
 30
0.0
 10
35.459994
 20
34.153563
 30
0.0
 10
35.484109
 20
34.153243
 30
0.0
 10
35.503266
 20
34.152185
 30
0.0
 10
35.520619
 20
34.150820
 30
0.0
 10
35.536142
 20
34.149111
 30
0.0
 10
35.549811
 20
34.147003
 30
0.0
 10
35.560948
 20
34.144543
 30
0.0
 10
35.568230
 20
34.142539
 30
0.0
 10
35.572135
 20
34.141293
 30
0.0
 10
35.573142
 20
34.141116
 30
0.0
 10
35.573811
 20
34.139373
 30
0.0
 10
35.574776
 20
34.135928
 30
0.0
 10
35.575667
 20
34.130546
 30
0.0
 10
35.576207
 20
34.122991
 30
0.0
 10
35.576886
 20
34.110886
 30
0.0
 10
35.577296
 20
34.097689
 30
0.0
 10
35.577493
 20
34.083319
 30
0.0
 10
35.577461
 20
34.067698
 30
0.0
 10
35.577441
 20
34.050954
 30
0.0
 10
35.577222
 20
34.035352
 30
0.0
 10
35.576807
 20
34.020884
 30
0.0
 10
35.576194
 20
34.007538
 30
0.0
 10
35.575350
 20
33.998787
 30
0.0
 10
35.574051
 20
33.991698
 30
0.0
 10
35.572302
 20
33.985880
 30
0.0
 10
35.570117
 20
33.980943
 30
0.0
 10
35.569052
 20
33.980374
 30
0.0
 10
35.565454
 20
33.978820
 30
0.0
 10
35.558735
 20
33.976659
 30
0.0
 10
35.548309
 20
33.974237
 30
0.0
 10
35.534891
 20
33.971749
 30
0.0
 10
35.519375
 20
33.969668
 30
0.0
 10
35.501864
 20
33.967987
 30
0.0
 10
35.482464
 20
33.966696
 30
0.0
 10
35.457757
 20
33.965614
 30
0.0
 10
35.431098
 20
33.964978
 30
0.0
 10
35.402499
 20
33.964625
 30
0.0
 10
35.371921
 20
33.964429
 30
0.0
  0
LWPOLYLINE
  5
104
100
AcDbEntity
  8
logos
 62
7
100
AcDbPolyline
 90
105
 70
1
 10
38.302416
 20
34.147511
 30
0.0
 10
38.295026
 20
34.175402
 30
0.0
 10
38.285724
 20
34.201860
 30
0.0
 10
38.274555
 20
34.226764
 30
0.0
 10
38.261552
 20
34.249990
 30
0.0
 10
38.244395
 20
34.272972
 30
0.0
 10
38.224213
 20
34.293846
 30
0.0
 10
38.201138
 20
34.312527
 30
0.0
 10
38.175299
 20
34.328929
 30
0.0
 10
38.148485
 20
34.342169
 30
0.0
 10
38.118912
 20
34.353522
 30
0.0
 10
38.086425
 20
34.363048
 30
0.0
 10
38.050867
 20
34.370806
 30
0.0
 10
38.014320
 20
34.376347
 30
0.0
 10
37.974402
 20
34.380291
 30
0.0
 10
37.930764
 20
34.382662
 30
0.0
 10
37.883056
 20
34.383484
 30
0.0
 10
37.806918
 20
34.383476
 30
0.0
 10
37.730780
 20
34.383467
 30
0.0
 10
37.654642
 20
34.383459
 30
0.0
 10
37.578504
 20
34.383451
 30
0.0
 10
37.530678
 20
34.382885
 30
0.0
 10
37.486996
 20
34.380665
 30
0.0
 10
37.447154
 20
34.376807
 30
0.0
 10
37.410845
 20
34.371299
 30
0.0
 10
37.375044
 20
34.363720
 30
0.0
 10
37.342428
 20
34.354301
 30
0.0
 10
37.312887
 20
34.343066
 30
0.0
 10
37.286304
 20
34.330026
 30
0.0
 10
37.260174
 20
34.313423
 30
0.0
 10
37.236981
 20
34.294729
 30
0.0
 10
37.216812
 20
34.273915
 30
0.0
 10
37.199752
 20
34.250961
 30
0.0
 10
37.186404
 20
34.227750
 30
0.0
 10
37.174985
 20
34.202812
 30
0.0
 10
37.165521
 20
34.176149
 30
0.0
 10
37.158036
 20
34.147758
 30
0.0
 10
37.152802
 20
34.120653
 30
0.0
 10
37.148904
 20
34.092060
 30
0.0
 10
37.146214
 20
34.061907
 30
0.0
 10
37.144582
 20
34.030124
 30
0.0
 10
37.144049
 20
33.999344
 30
0.0
 10
37.143624
 20
33.967011
 30
0.0
 10
37.143215
 20
33.933038
 30
0.0
 10
37.143010
 20
33.897338
 30
0.0
 10
37.143173
 20
33.861962
 30
0.0
 10
37.143497
 20
33.828141
 30
0.0
 10
37.144003
 20
33.795823
 30
0.0
 10
37.144680
 20
33.764957
 30
0.0
 10
37.146055
 20
33.733276
 30
0.0
 10
37.148710
 20
33.702987
 30
0.0
 10
37.152645
 20
33.674248
 30
0.0
 10
37.157856
 20
33.647214
 30
0.0
 10
37.165202
 20
33.619008
 30
0.0
 10
37.174598
 20
33.592446
 30
0.0
 10
37.185929
 20
33.567650
 30
0.0
 10
37.199092
 20
33.544739
 30
0.0
 10
37.215957
 20
33.521655
 30
0.0
 10
37.236051
 20
33.500506
 30
0.0
 10
37.259371
 20
33.481414
 30
0.0
 10
37.285916
 20
33.464502
 30
0.0
 10
37.312774
 20
33.451568
 30
0.0
 10
37.342531
 20
33.440400
 30
0.0
 10
37.374992
 20
33.431092
 30
0.0
 10
37.409965
 20
33.423738
 30
0.0
 10
37.446553
 20
33.418038
 30
0.0
 10
37.486537
 20
33.414114
 30
0.0
 10
37.530186
 20
33.411836
 30
0.0
 10
37.577776
 20
33.411059
 30
0.0
 10
37.653892
 20
33.410974
 30
0.0
 10
37.730007
 20
33.410889
 30
0.0
 10
37.806123
 20
33.410804
 30
0.0
 10
37.882239
 20
33.410719
 30
0.0
 10
37.929916
 20
33.411377
 30
0.0
 10
37.973536
 20
33.413559
 30
0.0
 10
38.013354
 20
33.417314
 30
0.0
 10
38.049620
 20
33.422691
 30
0.0
 10
38.084681
 20
33.430263
 30
0.0
 10
38.117210
 20
33.439682
 30
0.0
 10
38.147172
 20
33.450921
 30
0.0
 10
38.174533
 20
33.463968
 30
0.0
 10
38.200712
 20
33.480577
 30
0.0
 10
38.223901
 20
33.499453
 30
0.0
 10
38.243996
 20
33.520444
 30
0.0
 10
38.260895
 20
33.543404
 30
0.0
 10
38.274040
 20
33.566477
 30
0.0
 10
38.285281
 20
33.591293
 30
0.0
 10
38.294619
 20
33.617871
 30
0.0
 10
38.302057
 20
33.646229
 30
0.0
 10
38.307228
 20
33.673205
 30
0.0
 10
38.311311
 20
33.701882
 30
0.0
 10
38.314177
 20
33.732188
 30
0.0
 10
38.315686
 20
33.764051
 30
0.0
 10
38.316500
 20
33.794746
 30
0.0
 10
38.317130
 20
33.827028
 30
0.0
 10
38.317540
 20
33.860880
 30
0.0
 10
38.317749
 20
33.896283
 30
0.0
 10
38.317768
 20
33.931941
 30
0.0
 10
38.317444
 20
33.965912
 30
0.0
 10
38.316845
 20
33.998256
 30
0.0
 10
38.316075
 20
34.029036
 30
0.0
 10
38.314372
 20
34.060984
 30
0.0
 10
38.311559
 20
34.091210
 30
0.0
 10
38.307597
 20
34.119924
 30
0.0
 10
38.302416
 20
34.147511
 30
0.0
  0
LWPOLYLINE
  5
105
100
AcDbEntity
  8
logos
 62
7
100
AcDbPolyline
 90
105
 70
1
 10
37.882455
 20
33.625403
 30
0.0
 10
37.806316
 20
33.625488
 30
0.0
 10
37.730177
 20
33.625573
 30
0.0
 10
37.654038
 20
33.625658
 30
0.0
 10
37.577899
 20
33.625742
 30
0.0
 10
37.547400
 20
33.625906
 30
0.0
 10
37.519246
 20
33.626466
 30
0.0
 10
37.493548
 20
33.627562
 30
0.0
 10
37.470419
 20
33.629213
 30
0.0
 10
37.452815
 20
33.631125
 30
0.0
 10
37.437439
 20
33.633701
 30
0.0
 10
37.424256
 20
33.636894
 30
0.0
 10
37.413232
 20
33.640649
 30
0.0
 10
37.407302
 20
33.643384
 30
0.0
 10
37.402404
 20
33.646268
 30
0.0
 10
37.398510
 20
33.649302
 30
0.0
 10
37.395611
 20
33.652486
 30
0.0
 10
37.392496
 20
33.657725
 30
0.0
 10
37.389229
 20
33.665141
 30
0.0
 10
37.385992
 20
33.675157
 30
0.0
 10
37.382958
 20
33.688204
 30
0.0
 10
37.380210
 20
33.705257
 30
0.0
 10
37.378028
 20
33.724456
 30
0.0
 10
37.376430
 20
33.745736
 30
0.0
 10
37.375455
 20
33.769039
 30
0.0
 10
37.374990
 20
33.797138
 30
0.0
 10
37.374593
 20
33.827944
 30
0.0
 10
37.374279
 20
33.861439
 30
0.0
 10
37.374200
 20
33.897608
 30
0.0
 10
37.374401
 20
33.933790
 30
0.0
 10
37.374721
 20
33.967373
 30
0.0
 10
37.375158
 20
33.998408
 30
0.0
 10
37.375621
 20
34.026947
 30
0.0
 10
37.376360
 20
34.050086
 30
0.0
 10
37.377707
 20
34.071170
 30
0.0
 10
37.379725
 20
34.090202
 30
0.0
 10
37.382462
 20
34.107180
 30
0.0
 10
37.385073
 20
34.118125
 30
0.0
 10
37.388153
 20
34.127626
 30
0.0
 10
37.391558
 20
34.135528
 30
0.0
 10
37.395156
 20
34.141662
 30
0.0
 10
37.398388
 20
34.145334
 30
0.0
 10
37.402517
 20
34.148652
 30
0.0
 10
37.407450
 20
34.151662
 30
0.0
 10
37.413102
 20
34.154418
 30
0.0
 10
37.424452
 20
34.158199
 30
0.0
 10
37.437869
 20
34.161385
 30
0.0
 10
37.453281
 20
34.164005
 30
0.0
 10
37.470620
 20
34.166067
 30
0.0
 10
37.493753
 20
34.167673
 30
0.0
 10
37.519543
 20
34.168860
 30
0.0
 10
37.547888
 20
34.169512
 30
0.0
 10
37.578681
 20
34.169631
 30
0.0
 10
37.654727
 20
34.169545
 30
0.0
 10
37.730773
 20
34.169459
 30
0.0
 10
37.806819
 20
34.169374
 30
0.0
 10
37.882865
 20
34.169288
 30
0.0
 10
37.913727
 20
34.169035
 30
0.0
 10
37.942114
 20
34.168273
 30
0.0
 10
37.967888
 20
34.166992
 30
0.0
 10
37.990909
 20
34.165217
 30
0.0
 10
38.008247
 20
34.163406
 30
0.0
 10
38.023574
 20
34.160839
 30
0.0
 10
38.036798
 20
34.157552
 30
0.0
 10
38.047819
 20
34.153583
 30
0.0
 10
38.053554
 20
34.150866
 30
0.0
 10
38.058396
 20
34.147981
 30
0.0
 10
38.062337
 20
34.144845
 30
0.0
 10
38.065351
 20
34.141364
 30
0.0
 10
38.069111
 20
34.134921
 30
0.0
 10
38.072553
 20
34.126799
 30
0.0
 10
38.075627
 20
34.117170
 30
0.0
 10
38.078278
 20
34.106209
 30
0.0
 10
38.080995
 20
34.089384
 30
0.0
 10
38.083130
 20
34.070318
 30
0.0
 10
38.084718
 20
34.049082
 30
0.0
 10
38.085787
 20
34.025746
 30
0.0
 10
38.086254
 20
33.997324
 30
0.0
 10
38.086586
 20
33.966352
 30
0.0
 10
38.086840
 20
33.932795
 30
0.0
 10
38.087105
 20
33.896620
 30
0.0
 10
38.086811
 20
33.860477
 30
0.0
 10
38.086490
 20
33.827040
 30
0.0
 10
38.086049
 20
33.796290
 30
0.0
 10
38.085489
 20
33.768210
 30
0.0
 10
38.084558
 20
33.744655
 30
0.0
 10
38.082982
 20
33.723250
 30
0.0
 10
38.080788
 20
33.704124
 30
0.0
 10
38.078011
 20
33.687412
 30
0.0
 10
38.074787
 20
33.674439
 30
0.0
 10
38.071431
 20
33.664536
 30
0.0
 10
38.068243
 20
33.657354
 30
0.0
 10
38.065507
 20
33.652550
 30
0.0
 10
38.062283
 20
33.649008
 30
0.0
 10
38.058088
 20
33.645792
 30
0.0
 10
38.052866
 20
33.642807
 30
0.0
 10
38.046545
 20
33.639970
 30
0.0
 10
38.035660
 20
33.636166
 30
0.0
 10
38.022569
 20
33.632955
 30
0.0
 10
38.007413
 20
33.630384
 30
0.0
 10
37.990328
 20
33.628511
 30
0.0
 10
37.966702
 20
33.626965
 30
0.0
 10
37.940809
 20
33.625964
 30
0.0
 10
37.912729
 20
33.625407
 30
0.0
 10
37.882455
 20
33.625403
 30
0.0
  0
LWPOLYLINE
  5
106
100
AcDbEntity
  8
logos
 62
7
100
AcDbPolyline
 90
97
 70
1
 10
40.292718
 20
33.728201
 30
0.0
 10
40.292401
 20
33.713260
 30
0.0
 10
40.291372
 20
33.699604
 30
0.0
 10
40.289613
 20
33.687268
 30
0.0
 10
40.287096
 20
33.676285
 30
0.0
 10
40.285468
 20
33.670515
 30
0.0
 10
40.283413
 20
33.665551
 30
0.0
 10
40.280968
 20
33.661439
 30
0.0
 10
40.278160
 20
33.658227
 30
0.0
 10
40.274023
 20
33.654751
 30
0.0
 10
40.268729
 20
33.651570
 30
0.0
 10
40.262387
 20
33.648798
 30
0.0
 10
40.255092
 20
33.646547
 30
0.0
 10
40.244769
 20
33.644220
 30
0.0
 10
40.230544
 20
33.642030
 30
0.0
 10
40.212036
 20
33.640451
 30
0.0
 10
40.188865
 20
33.639942
 30
0.0
 10
40.129858
 20
33.640010
 30
0.0
 10
40.070851
 20
33.640078
 30
0.0
 10
40.011843
 20
33.640146
 30
0.0
 10
39.952836
 20
33.640214
 30
0.0
 10
39.938046
 20
33.640440
 30
0.0
 10
39.924743
 20
33.641240
 30
0.0
 10
39.913024
 20
33.642465
 30
0.0
 10
39.902986
 20
33.644088
 30
0.0
 10
39.900884
 20
33.644812
 30
0.0
 10
39.899517
 20
33.645543
 30
0.0
 10
39.898551
 20
33.646279
 30
0.0
 10
39.897613
 20
33.647014
 30
0.0
 10
39.896666
 20
33.648578
 30
0.0
 10
39.894556
 20
33.652980
 30
0.0
 10
39.891803
 20
33.661062
 30
0.0
 10
39.888942
 20
33.673655
 30
0.0
 10
39.886522
 20
33.690498
 30
0.0
 10
39.884664
 20
33.710715
 30
0.0
 10
39.883473
 20
33.734221
 30
0.0
 10
39.883022
 20
33.760930
 30
0.0
 10
39.883058
 20
33.785534
 30
0.0
 10
39.883094
 20
33.810138
 30
0.0
 10
39.883130
 20
33.834742
 30
0.0
 10
39.883166
 20
33.859346
 30
0.0
 10
39.825462
 20
33.859427
 30
0.0
 10
39.767759
 20
33.859507
 30
0.0
 10
39.710055
 20
33.859588
 30
0.0
 10
39.652351
 20
33.859669
 30
0.0
 10
39.652316
 20
33.835019
 30
0.0
 10
39.652280
 20
33.810369
 30
0.0
 10
39.652245
 20
33.785718
 30
0.0
 10
39.652209
 20
33.761068
 30
0.0
 10
39.652784
 20
33.721806
 30
0.0
 10
39.654498
 20
33.685907
 30
0.0
 10
39.657347
 20
33.653022
 30
0.0
 10
39.661370
 20
33.622802
 30
0.0
 10
39.668461
 20
33.590284
 30
0.0
 10
39.678720
 20
33.560522
 30
0.0
 10
39.692130
 20
33.533548
 30
0.0
 10
39.708671
 20
33.509400
 30
0.0
 10
39.729439
 20
33.487570
 30
0.0
 10
39.753727
 20
33.469030
 30
0.0
 10
39.781349
 20
33.453962
 30
0.0
 10
39.812122
 20
33.442548
 30
0.0
 10
39.841791
 20
33.435403
 30
0.0
 10
39.874940
 20
33.430303
 30
0.0
 10
39.911821
 20
33.427222
 30
0.0
 10
39.952690
 20
33.426156
 30
0.0
 10
40.011650
 20
33.426087
 30
0.0
 10
40.070611
 20
33.426019
 30
0.0
 10
40.129571
 20
33.425950
 30
0.0
 10
40.188532
 20
33.425882
 30
0.0
 10
40.229104
 20
33.426842
 30
0.0
 10
40.266437
 20
33.429660
 30
0.0
 10
40.300696
 20
33.434356
 30
0.0
 10
40.332047
 20
33.440914
 30
0.0
 10
40.364208
 20
33.450826
 30
0.0
 10
40.393460
 20
33.463530
 30
0.0
 10
40.419682
 20
33.478979
 30
0.0
 10
40.442754
 20
33.497128
 30
0.0
 10
40.463584
 20
33.518677
 30
0.0
 10
40.481184
 20
33.542980
 30
0.0
 10
40.495493
 20
33.569885
 30
0.0
 10
40.506453
 20
33.599245
 30
0.0
 10
40.513863
 20
33.627581
 30
0.0
 10
40.519164
 20
33.658307
 30
0.0
 10
40.522329
 20
33.691316
 30
0.0
 10
40.523340
 20
33.726502
 30
0.0
 10
40.523532
 20
33.885950
 30
0.0
 10
40.523724
 20
34.045397
 30
0.0
 10
40.523915
 20
34.204844
 30
0.0
 10
40.524107
 20
34.364292
 30
0.0
 10
40.466333
 20
34.364372
 30
0.0
 10
40.408560
 20
34.364452
 30
0.0
 10
40.350786
 20
34.364532
 30
0.0
 10
40.293013
 20
34.364613
 30
0.0
 10
40.292938
 20
34.205539
 30
0.0
 10
40.292855
 20
34.046465
 30
0.0
 10
40.292780
 20
33.887391
 30
0.0
 10
40.292718
 20
33.728201
 30
0.0
  0
LWPOLYLINE
  5
107
100
AcDbEntity
  8
logos
 62
7
100
AcDbPolyline
 90
49
 70
1
 10
42.858152
 20
34.362033
 30
0.0
 10
42.623521
 20
34.362198
 30
0.0
 10
42.388890
 20
34.362363
 30
0.0
 10
42.154259
 20
34.362527
 30
0.0
 10
41.919628
 20
34.362702
 30
0.0
 10
41.919408
 20
34.128024
 30
0.0
 10
41.919197
 20
33.893346
 30
0.0
 10
41.918986
 20
33.658668
 30
0.0
 10
41.918766
 20
33.423990
 30
0.0
 10
42.153397
 20
33.423769
 30
0.0
 10
42.388028
 20
33.423558
 30
0.0
 10
42.622660
 20
33.423347
 30
0.0
 10
42.857291
 20
33.423126
 30
0.0
 10
42.857413
 20
33.476687
 30
0.0
 10
42.857535
 20
33.530248
 30
0.0
 10
42.857657
 20
33.583809
 30
0.0
 10
42.857779
 20
33.637369
 30
0.0
 10
42.680804
 20
33.637527
 30
0.0
 10
42.503830
 20
33.637685
 30
0.0
 10
42.326856
 20
33.637843
 30
0.0
 10
42.149881
 20
33.638001
 30
0.0
 10
42.149959
 20
33.677154
 30
0.0
 10
42.150038
 20
33.716306
 30
0.0
 10
42.150116
 20
33.755458
 30
0.0
 10
42.150194
 20
33.794610
 30
0.0
 10
42.318696
 20
33.794396
 30
0.0
 10
42.487199
 20
33.794173
 30
0.0
 10
42.655701
 20
33.793959
 30
0.0
 10
42.824203
 20
33.793745
 30
0.0
 10
42.824231
 20
33.847352
 30
0.0
 10
42.824260
 20
33.900958
 30
0.0
 10
42.824288
 20
33.954565
 30
0.0
 10
42.824316
 20
34.008172
 30
0.0
 10
42.655837
 20
34.008414
 30
0.0
 10
42.487358
 20
34.008656
 30
0.0
 10
42.318879
 20
34.008898
 30
0.0
 10
42.150400
 20
34.009140
 30
0.0
 10
42.150428
 20
34.043915
 30
0.0
 10
42.150456
 20
34.078691
 30
0.0
 10
42.150485
 20
34.113467
 30
0.0
 10
42.150513
 20
34.148242
 30
0.0
 10
42.327534
 20
34.148085
 30
0.0
 10
42.504555
 20
34.147927
 30
0.0
 10
42.681576
 20
34.147770
 30
0.0
 10
42.858597
 20
34.147612
 30
0.0
 10
42.858532
 20
34.201218
 30
0.0
 10
42.858467
 20
34.254823
 30
0.0
 10
42.858496
 20
34.308430
 30
0.0
 10
42.858152
 20
34.362033
 30
0.0
  0
LWPOLYLINE
  5
108
100
AcDbEntity
  8
logos
 62
7
100
AcDbPolyline
 90
225
 70
1
 10
45.229361
 20
34.224415
 30
0.0
 10
45.217296
 20
34.244738
 30
0.0
 10
45.203474
 20
34.263543
 30
0.0
 10
45.187940
 20
34.280725
 30
0.0
 10
45.170738
 20
34.296179
 30
0.0
 10
45.151846
 20
34.310318
 30
0.0
 10
45.130926
 20
34.323031
 30
0.0
 10
45.107960
 20
34.334275
 30
0.0
 10
45.082931
 20
34.344005
 30
0.0
 10
45.058154
 20
34.351916
 30
0.0
 10
45.031216
 20
34.358680
 30
0.0
 10
45.002351
 20
34.364325
 30
0.0
 10
44.971795
 20
34.368883
 30
0.0
 10
44.939971
 20
34.372404
 30
0.0
 10
44.905827
 20
34.374934
 30
0.0
 10
44.869476
 20
34.376464
 30
0.0
 10
44.831030
 20
34.377015
 30
0.0
 10
44.771837
 20
34.377081
 30
0.0
 10
44.712643
 20
34.377148
 30
0.0
 10
44.653450
 20
34.377214
 30
0.0
 10
44.594257
 20
34.377280
 30
0.0
 10
44.546661
 20
34.376437
 30
0.0
 10
44.503043
 20
34.374115
 30
0.0
 10
44.463212
 20
34.370220
 30
0.0
 10
44.426975
 20
34.364704
 30
0.0
 10
44.391093
 20
34.357151
 30
0.0
 10
44.358476
 20
34.347779
 30
0.0
 10
44.328950
 20
34.336552
 30
0.0
 10
44.302341
 20
34.323435
 30
0.0
 10
44.276286
 20
34.306989
 30
0.0
 10
44.253133
 20
34.288277
 30
0.0
 10
44.232900
 20
34.267377
 30
0.0
 10
44.215603
 20
34.244367
 30
0.0
 10
44.202355
 20
34.221396
 30
0.0
 10
44.190961
 20
34.196453
 30
0.0
 10
44.181434
 20
34.169712
 30
0.0
 10
44.173792
 20
34.141350
 30
0.0
 10
44.168700
 20
34.113952
 30
0.0
 10
44.164870
 20
34.085118
 30
0.0
 10
44.162254
 20
34.054899
 30
0.0
 10
44.160816
 20
34.023348
 30
0.0
 10
44.160057
 20
33.992781
 30
0.0
 10
44.159445
 20
33.960557
 30
0.0
 10
44.159036
 20
33.926624
 30
0.0
 10
44.158830
 20
33.890931
 30
0.0
 10
44.158901
 20
33.855484
 30
0.0
 10
44.159290
 20
33.821733
 30
0.0
 10
44.159794
 20
33.789625
 30
0.0
 10
44.160282
 20
33.759106
 30
0.0
 10
44.161853
 20
33.727341
 30
0.0
 10
44.164574
 20
33.697010
 30
0.0
 10
44.168537
 20
33.668177
 30
0.0
 10
44.173835
 20
33.640901
 30
0.0
 10
44.181079
 20
33.612613
 30
0.0
 10
44.190438
 20
33.586039
 30
0.0
 10
44.201804
 20
33.561231
 30
0.0
 10
44.215072
 20
33.538240
 30
0.0
 10
44.232073
 20
33.515000
 30
0.0
 10
44.252265
 20
33.493870
 30
0.0
 10
44.275614
 20
33.474866
 30
0.0
 10
44.302083
 20
33.458004
 30
0.0
 10
44.328910
 20
33.445243
 30
0.0
 10
44.358603
 20
33.434100
 30
0.0
 10
44.391000
 20
33.424763
 30
0.0
 10
44.425944
 20
33.417427
 30
0.0
 10
44.462161
 20
33.411883
 30
0.0
 10
44.502350
 20
33.407942
 30
0.0
 10
44.546244
 20
33.405573
 30
0.0
 10
44.593569
 20
33.404747
 30
0.0
 10
44.652715
 20
33.404681
 30
0.0
 10
44.711862
 20
33.404614
 30
0.0
 10
44.771009
 20
33.404547
 30
0.0
 10
44.830156
 20
33.404481
 30
0.0
 10
44.869484
 20
33.404908
 30
0.0
 10
44.905834
 20
33.406226
 30
0.0
 10
44.939522
 20
33.408468
 30
0.0
 10
44.970862
 20
33.411646
 30
0.0
 10
45.002346
 20
33.416352
 30
0.0
 10
45.031312
 20
33.422160
 30
0.0
 10
45.058086
 20
33.429138
 30
0.0
 10
45.082988
 20
33.437336
 30
0.0
 10
45.108064
 20
33.447567
 30
0.0
 10
45.131186
 20
33.459378
 30
0.0
 10
45.152268
 20
33.472652
 30
0.0
 10
45.171225
 20
33.487276
 30
0.0
 10
45.188397
 20
33.503571
 30
0.0
 10
45.203893
 20
33.521490
 30
0.0
 10
45.217698
 20
33.540998
 30
0.0
 10
45.229794
 20
33.562061
 30
0.0
 10
45.239420
 20
33.583053
 30
0.0
 10
45.247419
 20
33.605460
 30
0.0
 10
45.253710
 20
33.629283
 30
0.0
 10
45.258209
 20
33.654518
 30
0.0
 10
45.261312
 20
33.677779
 30
0.0
 10
45.263526
 20
33.702428
 30
0.0
 10
45.264862
 20
33.728324
 30
0.0
 10
45.265340
 20
33.755330
 30
0.0
 10
45.265366
 20
33.771554
 30
0.0
 10
45.265392
 20
33.787778
 30
0.0
 10
45.265417
 20
33.804003
 30
0.0
 10
45.265443
 20
33.820227
 30
0.0
 10
45.207739
 20
33.820308
 30
0.0
 10
45.150035
 20
33.820388
 30
0.0
 10
45.092332
 20
33.820469
 30
0.0
 10
45.034628
 20
33.820550
 30
0.0
 10
45.034602
 20
33.804373
 30
0.0
 10
45.034576
 20
33.788195
 30
0.0
 10
45.034642
 20
33.772019
 30
0.0
 10
45.034616
 20
33.755841
 30
0.0
 10
45.034335
 20
33.737229
 30
0.0
 10
45.033667
 20
33.720079
 30
0.0
 10
45.032630
 20
33.704391
 30
0.0
 10
45.031337
 20
33.690168
 30
0.0
 10
45.029393
 20
33.677747
 30
0.0
 10
45.027189
 20
33.668073
 30
0.0
 10
45.024905
 20
33.660788
 30
0.0
 10
45.022732
 20
33.655543
 30
0.0
 10
45.020621
 20
33.651519
 30
0.0
 10
45.018235
 20
33.647976
 30
0.0
 10
45.015547
 20
33.644858
 30
0.0
 10
45.012530
 20
33.642128
 30
0.0
 10
45.008895
 20
33.639699
 30
0.0
 10
45.003476
 20
33.636890
 30
0.0
 10
44.995983
 20
33.633818
 30
0.0
 10
44.986120
 20
33.630601
 30
0.0
 10
44.973987
 20
33.627557
 30
0.0
 10
44.960024
 20
33.624980
 30
0.0
 10
44.944259
 20
33.622924
 30
0.0
 10
44.926716
 20
33.621447
 30
0.0
 10
44.906472
 20
33.620288
 30
0.0
 10
44.883755
 20
33.619412
 30
0.0
 10
44.858434
 20
33.618882
 30
0.0
 10
44.830378
 20
33.618641
 30
0.0
 10
44.771185
 20
33.618707
 30
0.0
 10
44.711991
 20
33.618773
 30
0.0
 10
44.652798
 20
33.618839
 30
0.0
 10
44.593605
 20
33.618905
 30
0.0
 10
44.563340
 20
33.619165
 30
0.0
 10
44.535159
 20
33.619836
 30
0.0
 10
44.509330
 20
33.620949
 30
0.0
 10
44.486123
 20
33.622563
 30
0.0
 10
44.468596
 20
33.624475
 30
0.0
 10
44.453200
 20
33.627078
 30
0.0
 10
44.439945
 20
33.630327
 30
0.0
 10
44.428841
 20
33.634193
 30
0.0
 10
44.420880
 20
33.637941
 30
0.0
 10
44.415715
 20
33.641446
 30
0.0
 10
44.412819
 20
33.644332
 30
0.0
 10
44.411683
 20
33.646211
 30
0.0
 10
44.408357
 20
33.651122
 30
0.0
 10
44.404905
 20
33.658434
 30
0.0
 10
44.401566
 20
33.668474
 30
0.0
 10
44.398578
 20
33.681555
 30
0.0
 10
44.395701
 20
33.698437
 30
0.0
 10
44.393435
 20
33.717630
 30
0.0
 10
44.391865
 20
33.738994
 30
0.0
 10
44.391074
 20
33.762391
 30
0.0
 10
44.390517
 20
33.790486
 30
0.0
 10
44.390135
 20
33.821271
 30
0.0
 10
44.389898
 20
33.854712
 30
0.0
 10
44.389820
 20
33.890772
 30
0.0
 10
44.390019
 20
33.927191
 30
0.0
 10
44.390337
 20
33.960887
 30
0.0
 10
44.390682
 20
33.991861
 30
0.0
 10
44.391148
 20
34.020111
 30
0.0
 10
44.391951
 20
34.043437
 30
0.0
 10
44.393425
 20
34.064708
 30
0.0
 10
44.395564
 20
34.083788
 30
0.0
 10
44.398369
 20
34.100534
 30
0.0
 10
44.400897
 20
34.111324
 30
0.0
 10
44.403903
 20
34.120862
 30
0.0
 10
44.407287
 20
34.128903
 30
0.0
 10
44.410958
 20
34.135205
 30
0.0
 10
44.414181
 20
34.138878
 30
0.0
 10
44.418226
 20
34.142167
 30
0.0
 10
44.423150
 20
34.145121
 30
0.0
 10
44.428999
 20
34.147767
 30
0.0
 10
44.440245
 20
34.151547
 30
0.0
 10
44.453627
 20
34.154714
 30
0.0
 10
44.469075
 20
34.157279
 30
0.0
 10
44.486519
 20
34.159230
 30
0.0
 10
44.509553
 20
34.160835
 30
0.0
 10
44.535209
 20
34.162020
 30
0.0
 10
44.563419
 20
34.162765
 30
0.0
 10
44.594113
 20
34.163032
 30
0.0
 10
44.653283
 20
34.162966
 30
0.0
 10
44.712453
 20
34.162899
 30
0.0
 10
44.771623
 20
34.162833
 30
0.0
 10
44.830793
 20
34.162767
 30
0.0
 10
44.865625
 20
34.162459
 30
0.0
 10
44.897295
 20
34.161516
 30
0.0
 10
44.925707
 20
34.159935
 30
0.0
 10
44.950765
 20
34.157659
 30
0.0
 10
44.971391
 20
34.154810
 30
0.0
 10
44.987271
 20
34.150870
 30
0.0
 10
44.999019
 20
34.146508
 30
0.0
 10
45.007244
 20
34.142390
 30
0.0
 10
45.011622
 20
34.139361
 30
0.0
 10
45.016256
 20
34.134947
 30
0.0
 10
45.020844
 20
34.128521
 30
0.0
 10
45.025068
 20
34.119466
 30
0.0
 10
45.028333
 20
34.108422
 30
0.0
 10
45.031499
 20
34.092436
 30
0.0
 10
45.033892
 20
34.070716
 30
0.0
 10
45.034824
 20
34.042471
 30
0.0
 10
45.034706
 20
34.026152
 30
0.0
 10
45.034588
 20
34.009834
 30
0.0
 10
45.034470
 20
33.993516
 30
0.0
 10
45.034352
 20
33.977198
 30
0.0
 10
45.092079
 20
33.977117
 30
0.0
 10
45.149806
 20
33.977037
 30
0.0
 10
45.207533
 20
33.976956
 30
0.0
 10
45.265260
 20
33.976875
 30
0.0
 10
45.265192
 20
33.993145
 30
0.0
 10
45.265124
 20
34.009415
 30
0.0
 10
45.265057
 20
34.025684
 30
0.0
 10
45.264989
 20
34.041954
 30
0.0
 10
45.264783
 20
34.066926
 30
0.0
 10
45.263575
 20
34.091113
 30
0.0
 10
45.261398
 20
34.114468
 30
0.0
 10
45.258280
 20
34.136950
 30
0.0
 10
45.253323
 20
34.160871
 30
0.0
 10
45.246778
 20
34.183425
 30
0.0
 10
45.238691
 20
34.204618
 30
0.0
 10
45.229361
 20
34.224415
 30
0.0
  0
LWPOLYLINE
  5
109
100
AcDbEntity
  8
logos
 62
7
100
AcDbPolyline
 90
33
 70
1
 10
47.004961
 20
34.143752
 30
0.0
 10
47.004769
 20
33.962681
 30
0.0
 10
47.004586
 20
33.781610
 30
0.0
 10
47.004394
 20
33.600538
 30
0.0
 10
47.004203
 20
33.419467
 30
0.0
 10
47.061905
 20
33.419479
 30
0.0
 10
47.119609
 20
33.419398
 30
0.0
 10
47.177313
 20
33.419317
 30
0.0
 10
47.235016
 20
33.419330
 30
0.0
 10
47.235226
 20
33.600401
 30
0.0
 10
47.235437
 20
33.781473
 30
0.0
 10
47.235647
 20
33.962544
 30
0.0
 10
47.235858
 20
34.143616
 30
0.0
 10
47.336903
 20
34.143545
 30
0.0
 10
47.437948
 20
34.143474
 30
0.0
 10
47.538993
 20
34.143402
 30
0.0
 10
47.640037
 20
34.143331
 30
0.0
 10
47.640159
 20
34.196915
 30
0.0
 10
47.640188
 20
34.250499
 30
0.0
 10
47.640309
 20
34.304083
 30
0.0
 10
47.640431
 20
34.357667
 30
0.0
 10
47.380475
 20
34.357870
 30
0.0
 10
47.120519
 20
34.358064
 30
0.0
 10
46.860562
 20
34.358257
 30
0.0
 10
46.600606
 20
34.358460
 30
0.0
 10
46.600484
 20
34.304923
 30
0.0
 10
46.600362
 20
34.251385
 30
0.0
 10
46.600333
 20
34.197848
 30
0.0
 10
46.600211
 20
34.144311
 30
0.0
 10
46.701396
 20
34.144176
 30
0.0
 10
46.802581
 20
34.144041
 30
0.0
 10
46.903766
 20
34.143906
 30
0.0
 10
47.004961
 20
34.143752
 30
0.0
  0
ENDSEC
  0
SECTION
  2
OBJECTS
  0
DICTIONARY
  5
C
330
0
100
AcDbDictionary
  3
ACAD_GROUP
350
D
  3
ACAD_MLINESTYLE
350
17
  0
DICTIONARY
  5
D
330
C
100
AcDbDictionary
  0
DICTIONARY
  5
1A
330
C
100
AcDbDictionary
  0
DICTIONARY
  5
17
330
C
100
AcDbDictionary
  3
STANDARD
350
18
  0
DICTIONARY
  5
19
330
C
100
AcDbDictionary
  0
ENDSEC
  0
EOF
